  0
SECTION
  2
HEADER
  9
$ACADVER
  1
AC1015
  9
$ACADMAINTVER
 70
     6
  9
$DWGCODEPAGE
  3
DOS850
  9
$INSBASE
 10
0.0
 20
0.0
 30
0.0
  9
$EXTMIN
 10
-19.4385
 20
-22.8653
 30
1.000000E+20
  9
$EXTMAX
 10
27.4047
 20
43.1183
 30
-1.000000E+20
  9
$LIMMIN
 10
0.0
 20
0.0
  9
$LIMMAX
 10
0.0
 20
0.0
  9
$ORTHOMODE
 70
     0
  9
$REGENMODE
 70
     1
  9
$FILLMODE
 70
     1
  9
$QTEXTMODE
 70
     0
  9
$MIRRTEXT
 70
     1
  9
$LTSCALE
 40
1.0
  9
$ATTMODE
 70
     1
  9
$TEXTSIZE
 40
0.2
  9
$TRACEWID
 40
0.05
  9
$TEXTSTYLE
  7
Standard
  9
$CLAYER
  8
0
  9
$CELTYPE
  6
Continuous
  9
$CECOLOR
 62
   256
  9
$CELTSCALE
 40
1.0
  9
$DISPSILH
 70
     0
  9
$DIMSCALE
 40
1.0
  9
$DIMASZ
 40
0.18
  9
$DIMEXO
 40
0.0625
  9
$DIMDLI
 40
0.38
  9
$DIMRND
 40
0.0
  9
$DIMDLE
 40
0.0
  9
$DIMEXE
 40
0.18
  9
$DIMTP
 40
0.0
  9
$DIMTM
 40
0.0
  9
$DIMTXT
 40
0.18
  9
$DIMCEN
 40
0.09
  9
$DIMTSZ
 40
0.0
  9
$DIMTOL
 70
     0
  9
$DIMLIM
 70
     0
  9
$DIMTIH
 70
     1
  9
$DIMTOH
 70
     1
  9
$DIMSE1
 70
     0
  9
$DIMSE2
 70
     0
  9
$DIMTAD
 70
     0
  9
$DIMZIN
 70
     0
  9
$DIMBLK
  1

  9
$DIMASO
 70
     1
  9
$DIMSHO
 70
     1
  9
$DIMPOST
  1

  9
$DIMAPOST
  1

  9
$DIMALT
 70
     0
  9
$DIMALTD
 70
     2
  9
$DIMALTF
 40
25.4
  9
$DIMLFAC
 40
1.0
  9
$DIMTOFL
 70
     0
  9
$DIMTVP
 40
0.0
  9
$DIMTIX
 70
     0
  9
$DIMSOXD
 70
     0
  9
$DIMSAH
 70
     0
  9
$DIMBLK1
  1

  9
$DIMBLK2
  1

  9
$DIMSTYLE
  2
Standard
  9
$DIMCLRD
 70
     0
  9
$DIMCLRE
 70
     0
  9
$DIMCLRT
 70
     0
  9
$DIMTFAC
 40
1.0
  9
$DIMGAP
 40
0.09
  9
$DIMJUST
 70
     0
  9
$DIMSD1
 70
     0
  9
$DIMSD2
 70
     0
  9
$DIMTOLJ
 70
     1
  9
$DIMTZIN
 70
     0
  9
$DIMALTZ
 70
     0
  9
$DIMALTTZ
 70
     0
  9
$DIMUPT
 70
     0
  9
$DIMDEC
 70
     4
  9
$DIMTDEC
 70
     4
  9
$DIMALTU
 70
     2
  9
$DIMALTTD
 70
     2
  9
$DIMTXSTY
  7
Standard
  9
$DIMAUNIT
 70
     0
  9
$DIMADEC
 70
     0
  9
$DIMALTRND
 40
0.0
  9
$DIMAZIN
 70
     0
  9
$DIMDSEP
 70
     0
  9
$DIMATFIT
 70
     3
  9
$DIMFRAC
 70
     0
  9
$DIMLDRBLK
  1

  9
$DIMLUNIT
 70
     2
  9
$DIMLWD
 70
     0
  9
$DIMLWE
 70
     0
  9
$DIMTMOVE
 70
     0
  9
$LUNITS
 70
     2
  9
$LUPREC
 70
     4
  9
$SKETCHINC
 40
0.1
  9
$FILLETRAD
 40
0.0
  9
$AUNITS
 70
     0
  9
$AUPREC
 70
     0
  9
$MENU
  1
acad
  9
$ELEVATION
 40
0.0
  9
$PELEVATION
 40
0.0
  9
$THICKNESS
 40
0.0
  9
$LIMCHECK
 70
     0
  9
$CHAMFERA
 40
0.0
  9
$CHAMFERB
 40
0.0
  9
$CHAMFERC
 40
0.0
  9
$CHAMFERD
 40
0.0
  9
$SKPOLY
 70
     0
  9
$TDCREATE
 40
0.000000000
  9
$TDUCREATE
 40
0.000000000
  9
$TDUPDATE
 40
0.000000000
  9
$TDUUPDATE
 40
0.000000000
  9
$TDINDWG
 40
0.0000000000
  9
$TDUSRTIMER
 40
0.0000000000
  9
$USRTIMER
 70
     1
  9
$ANGBASE
 50
0.0
  9
$ANGDIR
 70
     0
  9
$PDMODE
 70
     0
  9
$PDSIZE
 40
0.0
  9
$PLINEWID
 40
0.0
  9
$SPLFRAME
 70
     0
  9
$SPLINETYPE
 70
     6
  9
$SPLINESEGS
 70
     8
  9
$HANDSEED
  5
CD
  9
$SURFTAB1
 70
     6
  9
$SURFTAB2
 70
     6
  9
$SURFTYPE
 70
     6
  9
$SURFU
 70
     6
  9
$SURFV
 70
     6
  9
$UCSBASE
  2

  9
$UCSNAME
  2

  9
$UCSORG
 10
0.0
 20
0.0
 30
0.0
  9
$UCSXDIR
 10
1.0
 20
0.0
 30
0.0
  9
$UCSYDIR
 10
0.0
 20
1.0
 30
0.0
  9
$UCSORTHOREF
  2

  9
$UCSORTHOVIEW
 70
     0
  9
$UCSORGTOP
 10
0.0
 20
0.0
 30
0.0
  9
$UCSORGBOTTOM
 10
0.0
 20
0.0
 30
0.0
  9
$UCSORGLEFT
 10
0.0
 20
0.0
 30
0.0
  9
$UCSORGRIGHT
 10
0.0
 20
0.0
 30
0.0
  9
$UCSORGFRONT
 10
0.0
 20
0.0
 30
0.0
  9
$UCSORGBACK
 10
0.0
 20
0.0
 30
0.0
  9
$PUCSBASE
  2

  9
$PUCSNAME
  2

  9
$PUCSORG
 10
0.0
 20
0.0
 30
0.0
  9
$PUCSXDIR
 10
1.0
 20
0.0
 30
0.0
  9
$PUCSYDIR
 10
0.0
 20
1.0
 30
0.0
  9
$PUCSORTHOREF
  2

  9
$PUCSORTHOVIEW
 70
     0
  9
$PUCSORGTOP
 10
0.0
 20
0.0
 30
0.0
  9
$PUCSORGBOTTOM
 10
0.0
 20
0.0
 30
0.0
  9
$PUCSORGLEFT
 10
0.0
 20
0.0
 30
0.0
  9
$PUCSORGRIGHT
 10
0.0
 20
0.0
 30
0.0
  9
$PUCSORGFRONT
 10
0.0
 20
0.0
 30
0.0
  9
$PUCSORGBACK
 10
0.0
 20
0.0
 30
0.0
  9
$USERI1
 70
     0
  9
$USERI2
 70
     0
  9
$USERI3
 70
     0
  9
$USERI4
 70
     0
  9
$USERI5
 70
     0
  9
$USERR1
 40
0.0
  9
$USERR2
 40
0.0
  9
$USERR3
 40
0.0
  9
$USERR4
 40
0.0
  9
$USERR5
 40
0.0
  9
$WORLDVIEW
 70
     1
  9
$SHADEDGE
 70
     3
  9
$SHADEDIF
 70
    70
  9
$TILEMODE
 70
     1
  9
$MAXACTVP
 70
    16
  9
$PINSBASE
 10
0.0
 20
0.0
 30
0.0
  9
$PLIMCHECK
 70
     0
  9
$PEXTMIN
 10
1.000000E+20
 20
1.000000E+20
 30
1.000000E+20
  9
$PEXTMAX
 10
-1.000000E+20
 20
-1.000000E+20
 30
-1.000000E+20
  9
$PLIMMIN
 10
0.0
 20
0.0
  9
$PLIMMAX
 10
12.0
 20
9.0
  9
$UNITMODE
 70
     0
  9
$VISRETAIN
 70
     0
  9
$PLINEGEN
 70
     1
  9
$PSLTSCALE
 70
     0
  9
$TREEDEPTH
 70
  3020
  9
$CMLSTYLE
  2
Standard
  9
$CMLJUST
 70
     0
  9
$CMLSCALE
 40
1.0
  9
$PROXYGRAPHICS
 70
     0
  9
$MEASUREMENT
 70
     0
  9
$CELWEIGHT
370
     0
  9
$ENDCAPS
280
     0
  9
$JOINSTYLE
280
     0
  9
$LWDISPLAY
290
     0
  9
$INSUNITS
 70
     4
  9
$HYPERLINKBASE
  1

  9
$XEDIT
290
     1
  9
$CEPSNTYPE
380
     0
  9
$PSTYLEMODE
290
     1
  9
$FINGERPRINTGUID
  2

  9
$VERSIONGUID
  2

  9
$EXTNAMES
290
     1
  9
$PSVPSCALE
 40
0.0
  0
ENDSEC
  0
SECTION
  2
CLASSES
  0
CLASS
  1
LWPOLYLINE
  2
AcDbPolyline
  3
AutoCAD 2000
 90
    32768
280
     0
281
     1
  0
CLASS
  1
IMAGE
  2
AcDbRasterImage
  3
ISM
 90
    32895
280
     0
281
     1
  0
CLASS
  1
OLE2FRAME
  2
AcDbOle2Frame
  3
AutoCAD 2000
 90
    32768
280
     0
281
     1
  0
CLASS
  1
HATCH
  2
AcDbHatch
  3
AutoCAD 2000
 90
    32768
280
     0
281
     1
  0
CLASS
  1
DICTIONARYVAR
  2
AcDbDictionaryVar
  3
AutoCAD 2000
 90
    32768
280
     0
281
     0
  0
CLASS
  1
RASTERVARIABLES
  2
AcDbRasterVariables
  3
ISM
 90
    32768
280
     0
281
     0
  0
CLASS
  1
IMAGEDEF
  2
AcDbRasterImageDef
  3
ISM
 90
    32768
280
     0
281
     0
  0
CLASS
  1
IMAGEDEF_REACTOR
  2
AcDbRasterImageDefReactor
  3
ISM
 90
    32769
280
     0
281
     0
  0
CLASS
  1
IDBUFFER
  2
AcDbIdBuffer
  3
AutoCAD 2000
 90
    32768
280
     0
281
     0
  0
CLASS
  1
SPATIAL_FILTER
  2
AcDbSpatialFilter
  3
AutoCAD 2000
 90
    32768
280
     0
281
     0
  0
CLASS
  1
XRECORD
  2
AcDbXrecord
  3
AutoCAD 2000
 90
    32768
280
     0
281
     0
  0
CLASS
  1
SORTENTSTABLE
  2
AcDbSortentsTable
  3
AutoCAD 2000
 90
    32768
280
     0
281
     0
  0
CLASS
  1
LAYER_INDEX
  2
AcDbLayerIndex
  3
AutoCAD 2000
 90
    32768
280
     0
281
     0
  0
CLASS
  1
SPATIAL_INDEX
  2
AcDbSpatialIndex
  3
AutoCAD 2000
 90
    32768
280
     0
281
     0
  0
CLASS
  1
OBJECT_PTR
  2
CAseDLPNTableRecord
  3
"ASE-LPNTableRecord"
 90
    32769
280
     0
281
     0
  0
CLASS
  1
LAYOUT
  2
AcDbLayout
  3
AutoCAD 2000
 90
        0
280
     0
281
     0
  0
CLASS
  1
PLOTSETTINGS
  2
AcDbPlotSettings
  3
AutoCAD 2000
 90
    32768
280
     0
281
     0
  0
CLASS
  1
ACDBDICTIONARYWDFLT
  2
AcDbDictionaryWithDefault
  3
AutoCAD 2000
 90
        0
280
     0
281
     0
  0
CLASS
  1
ACDBPLACEHOLDER
  2
AcDbPlaceHolder
  3
AutoCAD 2000
 90
        0
280
     0
281
     0
  0
CLASS
  1
VBA_PROJECT
  2
AcDbVbaProject
  3
acadvba
 90
    32768
280
     0
281
     0
  0
CLASS
  1
WIPEOUT
  2
AcDbWipeout
  3
WipeOut|AutoCAD Express Tool|expresstools@autodesk.com
 90
    32895
280
     0
281
     1
  0
CLASS
  1
WIPEOUTVARIABLES
  2
AcDbWipeoutVariables
  3
WipeOut|AutoCAD Express Tool|expresstools@autodesk.com
 90
        0
280
     0
281
     0
  0
CLASS
  1
RTEXT
  2
RText
  3
RText|AutoCAD Express Tool|expresstools@autodesk.com
 90
    32768
280
     0
281
     1
  0
CLASS
  1
ARCALIGNEDTEXT
  2
AcDbArcAlignedText
  3
ATEXT|AutoCAD Express Tool|expresstools@autodesk.com
 90
    32768
280
     0
281
     1
  0
ENDSEC
  0
SECTION
  2
TABLES
  0
TABLE
  2
VPORT
  5
7
100
AcDbSymbolTable
 70
     1
  0
VPORT
  5
15
100
AcDbSymbolTableRecord
100
AcDbViewportTableRecord
  2
*ACTIVE
 70
     0
 10
0.0
 20
0.0
 11
1.0
 21
1.0
 12
6.591288
 22
4.579184
 13
0.0
 23
0.0
 14
1.0
 24
1.0
 15
0.0
 25
0.0
 16
0.0
 26
0.0
 36
1.0
 17
0.0
 27
0.0
 37
0.0
 40
9.158369
 41
0.688564
 42
50.0
 43
0.0
 44
0.0
 50
0.0
 51
0.0
 71
     0
 72
   100
 73
     1
 74
     1
 75
     0
 76
     0
 77
     0
 78
     0
281
     0
 65
     0
110
0.0
120
0.0
130
0.0
111
1.0
121
0.0
131
0.0
112
0.0
122
1.0
132
0.0
345
0
346
0
 79
     0
146
0.0
  0
ENDTAB
  0
TABLE
  2
LTYPE
  5
4
100
AcDbSymbolTable
 70
     3
  0
LTYPE
  5
11
100
AcDbSymbolTableRecord
100
AcDbLinetypeTableRecord
  2
ByBlock
 70
    64
  3

 72
    65
 73
     0
 40
0.0
  0
LTYPE
  5
12
100
AcDbSymbolTableRecord
100
AcDbLinetypeTableRecord
  2
ByLayer
 70
    64
  3

 72
    65
 73
     0
 40
0.0
  0
LTYPE
  5
13
100
AcDbSymbolTableRecord
100
AcDbLinetypeTableRecord
  2
Continuous
 70
    64
  3
Solid line
 72
    65
 73
     0
 40
0.0
  0
ENDTAB
  0
TABLE
  2
LAYER
  5
2
100
AcDbSymbolTable
 70
     2
  0
LAYER
  5
14
100
AcDbSymbolTableRecord
100
AcDbLayerTableRecord
  2
0
 70
     0
 62
     7
  6
Continuous
290
     1
370
    -3
390
1D
  0
LAYER
  5
24
100
AcDbSymbolTableRecord
100
AcDbLayerTableRecord
  2
Ebene 1
 70
     0
 62
     7
  6
Continuous
290
     1
370
    -3
390
1F
  0
ENDTAB
  0
TABLE
  2
STYLE
  5
3
100
AcDbSymbolTable
 70
     2
  0
STYLE
  5
17
100
AcDbSymbolTableRecord
100
AcDbTextStyleTableRecord
  2
Standard
 70
     0
 40
0.0
 41
1.0
 50
0.0
 71
     0
 42
0.0
  3
txt
  4

  0
STYLE
  5
CB
100
AcDbSymbolTableRecord
100
AcDbTextStyleTableRecord
  2
Arial
 70
     0
 40
1.0
 41
1.0
 50
0.0
 71
     0
 42
1.0
  3
Arial
  4

  0
ENDTAB
  0
TABLE
  2
VIEW
  5
5
100
AcDbSymbolTable
 70
     0
  0
ENDTAB
  0
TABLE
  2
UCS
  5
6
100
AcDbSymbolTable
 70
     0
  0
ENDTAB
  0
TABLE
  2
APPID
  5
8
100
AcDbSymbolTable
 70
     1
  0
APPID
  5
16
100
AcDbSymbolTableRecord
100
AcDbRegAppTableRecord
  2
ACAD
 70
     0
  0
ENDTAB
  0
TABLE
  2
DIMSTYLE
  5
9
100
AcDbSymbolTable
 70
     1
100
AcDbDimStyleTable
 71
     0
  0
DIMSTYLE
105
18
100
AcDbSymbolTableRecord
100
AcDbDimStyleTableRecord
  2
Standard
 70
     0
  3

  4

 40
1.0
 41
0.18
 42
0.0625
 43
0.38
 44
0.18
 45
0.0
 46
0.0
 47
0.0
 48
0.0
 71
     0
 72
     0
 73
     1
 74
     1
 75
     0
 76
     0
 77
     0
 78
     0
 79
     0
140
0.18
141
0.09
142
0.0
143
25.4
144
1.0
145
0.0
146
1.0
147
0.09
148
0.0
170
     0
171
     2
172
     0
173
     0
174
     0
175
     0
176
     0
177
     0
178
     0
179
     0
271
     4
272
     4
273
     2
274
     2
275
     0
276
     0
277
     2
278
    46
279
     0
280
     0
281
     0
282
     0
283
     1
284
     0
285
     0
286
     0
288
     0
340
17
341
0
342
0
343
0
344
0
371
    -2
372
    -2
  0
ENDTAB
  0
TABLE
  2
BLOCK_RECORD
  5
1
100
AcDbSymbolTable
 70
     0
  0
BLOCK_RECORD
  5
A
100
AcDbSymbolTableRecord
100
AcDbBlockTableRecord
  2
*MODEL_SPACE
340
20
  0
BLOCK_RECORD
  5
B
100
AcDbSymbolTableRecord
100
AcDbBlockTableRecord
  2
*PAPER_SPACE
340
21
  0
ENDTAB
  0
ENDSEC
  0
SECTION
  2
BLOCKS
  0
BLOCK
  5
D
100
AcDbEntity
  8
0
100
AcDbBlockBegin
  2
*MODEL_SPACE
 70
     0
 10
0.0
 20
0.0
 30
0.0
  3
*MODEL_SPACE
  1

  0
ENDBLK
  5
E
100
AcDbEntity
  8
0
100
AcDbBlockEnd
  0
BLOCK
  5
F
100
AcDbEntity
 67
     1
  8
0
100
AcDbBlockBegin
  2
*PAPER_SPACE
 70
     0
 10
0.0
 20
0.0
 30
0.0
  3
*PAPER_SPACE
  1

  0
ENDBLK
  5
10
100
AcDbEntity
 67
     1
  8
0
100
AcDbBlockEnd
  0
ENDSEC
  0
SECTION
  2
ENTITIES
  0
SPLINE
  5
25
100
AcDbEntity
  8
Ebene 1
370
    40
 62
     0
100
AcDbSpline
210
0.0
220
0.0
230
1.0
 70
     0
 71
     3
 72
     8
 73
     4
 74
     0
 42
0.0000000001
 43
0.0000000001
 40
0.0
 40
0.0
 40
0.0
 40
0.0
 40
1.0
 40
1.0
 40
1.0
 40
1.0
 10
4.7298
 20
1.3029000000000002
 30
0.0
 10
4.7298
 20
1.3029000000000002
 30
0.0
 10
7.6776
 20
1.3029000000000002
 30
0.0
 10
7.6776
 20
1.3029000000000002
 30
0.0
  0
SPLINE
  5
26
100
AcDbEntity
  8
Ebene 1
370
    40
 62
     0
100
AcDbSpline
210
0.0
220
0.0
230
1.0
 70
     0
 71
     3
 72
     8
 73
     4
 74
     0
 42
0.0000000001
 43
0.0000000001
 40
0.0
 40
0.0
 40
0.0
 40
0.0
 40
1.0
 40
1.0
 40
1.0
 40
1.0
 10
0.2884
 20
4.2507000000000001
 30
0.0
 10
0.2884
 20
4.2507000000000001
 30
0.0
 10
3.2362000000000002
 20
4.2507000000000001
 30
0.0
 10
3.2362000000000002
 20
4.2507000000000001
 30
0.0
  0
SPLINE
  5
27
100
AcDbEntity
  8
Ebene 1
370
    40
 62
     0
100
AcDbSpline
210
0.0
220
0.0
230
1.0
 70
     0
 71
     3
 72
     8
 73
     4
 74
     0
 42
0.0000000001
 43
0.0000000001
 40
0.0
 40
0.0
 40
0.0
 40
0.0
 40
1.0
 40
1.0
 40
1.0
 40
1.0
 10
0.2884
 20
4.2507000000000001
 30
0.0
 10
0.2884
 20
4.2507000000000001
 30
0.0
 10
0.2884
 20
1.3029000000000002
 30
0.0
 10
0.2884
 20
1.3029000000000002
 30
0.0
  0
SPLINE
  5
28
100
AcDbEntity
  8
Ebene 1
370
    40
 62
     0
100
AcDbSpline
210
0.0
220
0.0
230
1.0
 70
     0
 71
     3
 72
     8
 73
     4
 74
     0
 42
0.0000000001
 43
0.0000000001
 40
0.0
 40
0.0
 40
0.0
 40
0.0
 40
1.0
 40
1.0
 40
1.0
 40
1.0
 10
3.2362000000000002
 20
4.2507000000000001
 30
0.0
 10
3.2362000000000002
 20
4.2507000000000001
 30
0.0
 10
3.2362000000000002
 20
1.3029000000000002
 30
0.0
 10
3.2362000000000002
 20
1.3029000000000002
 30
0.0
  0
SPLINE
  5
29
100
AcDbEntity
  8
Ebene 1
370
    40
 62
     0
100
AcDbSpline
210
0.0
220
0.0
230
1.0
 70
     0
 71
     3
 72
     8
 73
     4
 74
     0
 42
0.0000000001
 43
0.0000000001
 40
0.0
 40
0.0
 40
0.0
 40
0.0
 40
1.0
 40
1.0
 40
1.0
 40
1.0
 10
0.2884
 20
1.3029000000000002
 30
0.0
 10
0.2884
 20
1.3029000000000002
 30
0.0
 10
3.2362000000000002
 20
1.3029000000000002
 30
0.0
 10
3.2362000000000002
 20
1.3029000000000002
 30
0.0
  0
SPLINE
  5
2A
100
AcDbEntity
  8
Ebene 1
370
    40
 62
     0
100
AcDbSpline
210
0.0
220
0.0
230
1.0
 70
     0
 71
     3
 72
   224
 73
   220
 74
     0
 42
0.0000000001
 43
0.0000000001
 40
0.0
 40
0.0
 40
0.0
 40
0.0
 40
0.0181818181818182
 40
0.0181818181818182
 40
0.0181818181818182
 40
0.0181818181818182
 40
0.0363636363636364
 40
0.0363636363636364
 40
0.0363636363636364
 40
0.0363636363636364
 40
0.0545454545454545
 40
0.0545454545454545
 40
0.0545454545454545
 40
0.0545454545454545
 40
0.0727272727272727
 40
0.0727272727272727
 40
0.0727272727272727
 40
0.0727272727272727
 40
0.0909090909090909
 40
0.0909090909090909
 40
0.0909090909090909
 40
0.0909090909090909
 40
0.1090909090909091
 40
0.1090909090909091
 40
0.1090909090909091
 40
0.1090909090909091
 40
0.1272727272727273
 40
0.1272727272727273
 40
0.1272727272727273
 40
0.1272727272727273
 40
0.1454545454545455
 40
0.1454545454545455
 40
0.1454545454545455
 40
0.1454545454545455
 40
0.1636363636363637
 40
0.1636363636363637
 40
0.1636363636363637
 40
0.1636363636363637
 40
0.1818181818181819
 40
0.1818181818181819
 40
0.1818181818181819
 40
0.1818181818181819
 40
0.2
 40
0.2
 40
0.2
 40
0.2
 40
0.2181818181818182
 40
0.2181818181818182
 40
0.2181818181818182
 40
0.2181818181818182
 40
0.2363636363636364
 40
0.2363636363636364
 40
0.2363636363636364
 40
0.2363636363636364
 40
0.2545454545454546
 40
0.2545454545454546
 40
0.2545454545454546
 40
0.2545454545454546
 40
0.2727272727272728
 40
0.2727272727272728
 40
0.2727272727272728
 40
0.2727272727272728
 40
0.290909090909091
 40
0.290909090909091
 40
0.290909090909091
 40
0.290909090909091
 40
0.3090909090909091
 40
0.3090909090909091
 40
0.3090909090909091
 40
0.3090909090909091
 40
0.3272727272727273
 40
0.3272727272727273
 40
0.3272727272727273
 40
0.3272727272727273
 40
0.3454545454545455
 40
0.3454545454545455
 40
0.3454545454545455
 40
0.3454545454545455
 40
0.3636363636363637
 40
0.3636363636363637
 40
0.3636363636363637
 40
0.3636363636363637
 40
0.3818181818181819
 40
0.3818181818181819
 40
0.3818181818181819
 40
0.3818181818181819
 40
0.4000000000000001
 40
0.4000000000000001
 40
0.4000000000000001
 40
0.4000000000000001
 40
0.4181818181818183
 40
0.4181818181818183
 40
0.4181818181818183
 40
0.4181818181818183
 40
0.4363636363636365
 40
0.4363636363636365
 40
0.4363636363636365
 40
0.4363636363636365
 40
0.4545454545454546
 40
0.4545454545454546
 40
0.4545454545454546
 40
0.4545454545454546
 40
0.4727272727272728
 40
0.4727272727272728
 40
0.4727272727272728
 40
0.4727272727272728
 40
0.490909090909091
 40
0.490909090909091
 40
0.490909090909091
 40
0.490909090909091
 40
0.5090909090909092
 40
0.5090909090909092
 40
0.5090909090909092
 40
0.5090909090909092
 40
0.5272727272727273
 40
0.5272727272727273
 40
0.5272727272727273
 40
0.5272727272727273
 40
0.5454545454545455
 40
0.5454545454545455
 40
0.5454545454545455
 40
0.5454545454545455
 40
0.5636363636363637
 40
0.5636363636363637
 40
0.5636363636363637
 40
0.5636363636363637
 40
0.5818181818181819
 40
0.5818181818181819
 40
0.5818181818181819
 40
0.5818181818181819
 40
0.6000000000000001
 40
0.6000000000000001
 40
0.6000000000000001
 40
0.6000000000000001
 40
0.6181818181818183
 40
0.6181818181818183
 40
0.6181818181818183
 40
0.6181818181818183
 40
0.6363636363636365
 40
0.6363636363636365
 40
0.6363636363636365
 40
0.6363636363636365
 40
0.6545454545454547
 40
0.6545454545454547
 40
0.6545454545454547
 40
0.6545454545454547
 40
0.6727272727272728
 40
0.6727272727272728
 40
0.6727272727272728
 40
0.6727272727272728
 40
0.690909090909091
 40
0.690909090909091
 40
0.690909090909091
 40
0.690909090909091
 40
0.7090909090909092
 40
0.7090909090909092
 40
0.7090909090909092
 40
0.7090909090909092
 40
0.7272727272727274
 40
0.7272727272727274
 40
0.7272727272727274
 40
0.7272727272727274
 40
0.7454545454545456
 40
0.7454545454545456
 40
0.7454545454545456
 40
0.7454545454545456
 40
0.7636363636363638
 40
0.7636363636363638
 40
0.7636363636363638
 40
0.7636363636363638
 40
0.781818181818182
 40
0.781818181818182
 40
0.781818181818182
 40
0.781818181818182
 40
0.8000000000000002
 40
0.8000000000000002
 40
0.8000000000000002
 40
0.8000000000000002
 40
0.8181818181818183
 40
0.8181818181818183
 40
0.8181818181818183
 40
0.8181818181818183
 40
0.8363636363636365
 40
0.8363636363636365
 40
0.8363636363636365
 40
0.8363636363636365
 40
0.8545454545454547
 40
0.8545454545454547
 40
0.8545454545454547
 40
0.8545454545454547
 40
0.8727272727272729
 40
0.8727272727272729
 40
0.8727272727272729
 40
0.8727272727272729
 40
0.8909090909090911
 40
0.8909090909090911
 40
0.8909090909090911
 40
0.8909090909090911
 40
0.9090909090909093
 40
0.9090909090909093
 40
0.9090909090909093
 40
0.9090909090909093
 40
0.9272727272727275
 40
0.9272727272727275
 40
0.9272727272727275
 40
0.9272727272727275
 40
0.9454545454545457
 40
0.9454545454545457
 40
0.9454545454545457
 40
0.9454545454545457
 40
0.9636363636363639
 40
0.9636363636363639
 40
0.9636363636363639
 40
0.9636363636363639
 40
0.981818181818182
 40
0.981818181818182
 40
0.981818181818182
 40
0.981818181818182
 40
1.0
 40
1.0
 40
1.0
 40
1.0
 10
27.211600000000001
 20
0.5955
 30
0.0
 10
27.211600000000001
 20
0.5955
 30
0.0
 10
27.0151
 20
3.2092000000000001
 30
0.0
 10
27.0151
 20
3.2092000000000001
 30
0.0
 10
27.0151
 20
3.2092000000000001
 30
0.0
 10
27.0151
 20
3.2092000000000001
 30
0.0
 10
26.543500000000002
 20
5.9015000000000004
 30
0.0
 10
26.543500000000002
 20
5.9015000000000004
 30
0.0
 10
26.543500000000002
 20
5.9015000000000004
 30
0.0
 10
26.543500000000002
 20
5.9015000000000004
 30
0.0
 10
25.836000000000002
 20
8.4562000000000008
 30
0.0
 10
25.836000000000002
 20
8.4562000000000008
 30
0.0
 10
25.836000000000002
 20
8.4562000000000008
 30
0.0
 10
25.836000000000002
 20
8.4562000000000008
 30
0.0
 10
24.774800000000003
 20
10.8734
 30
0.0
 10
24.774800000000003
 20
10.8734
 30
0.0
 10
24.774800000000003
 20
10.8734
 30
0.0
 10
24.774800000000003
 20
10.8734
 30
0.0
 10
23.3992
 20
13.2317
 30
0.0
 10
23.3992
 20
13.2317
 30
0.0
 10
23.3992
 20
13.2317
 30
0.0
 10
23.3992
 20
13.2317
 30
0.0
 10
21.827000000000002
 20
15.393400000000002
 30
0.0
 10
21.827000000000002
 20
15.393400000000002
 30
0.0
 10
21.827000000000002
 20
15.393400000000002
 30
0.0
 10
21.827000000000002
 20
15.393400000000002
 30
0.0
 10
19.999400000000001
 20
17.358599999999999
 30
0.0
 10
19.999400000000001
 20
17.358599999999999
 30
0.0
 10
19.999400000000001
 20
17.358599999999999
 30
0.0
 10
19.999400000000001
 20
17.358599999999999
 30
0.0
 10
17.975200000000001
 20
19.068300000000001
 30
0.0
 10
17.975200000000001
 20
19.068300000000001
 30
0.0
 10
17.975200000000001
 20
19.068300000000001
 30
0.0
 10
17.975200000000001
 20
19.068300000000001
 30
0.0
 10
15.734900000000001
 20
20.561800000000002
 30
0.0
 10
15.734900000000001
 20
20.561800000000002
 30
0.0
 10
15.734900000000001
 20
20.561800000000002
 30
0.0
 10
15.734900000000001
 20
20.561800000000002
 30
0.0
 10
13.3766
 20
21.819600000000001
 30
0.0
 10
13.3766
 20
21.819600000000001
 30
0.0
 10
13.3766
 20
21.819600000000001
 30
0.0
 10
13.3766
 20
21.819600000000001
 30
0.0
 10
10.821900000000001
 20
22.723600000000001
 30
0.0
 10
10.821900000000001
 20
22.723600000000001
 30
0.0
 10
10.821900000000001
 20
22.723600000000001
 30
0.0
 10
10.821900000000001
 20
22.723600000000001
 30
0.0
 10
8.267100000000001
 20
23.3917
 30
0.0
 10
8.267100000000001
 20
23.3917
 30
0.0
 10
8.267100000000001
 20
23.3917
 30
0.0
 10
8.267100000000001
 20
23.3917
 30
0.0
 10
5.5945
 20
23.706200000000003
 30
0.0
 10
5.5945
 20
23.706200000000003
 30
0.0
 10
5.5945
 20
23.706200000000003
 30
0.0
 10
5.5945
 20
23.706200000000003
 30
0.0
 10
2.9021000000000003
 20
23.784800000000001
 30
0.0
 10
2.9021000000000003
 20
23.784800000000001
 30
0.0
 10
2.9021000000000003
 20
23.784800000000001
 30
0.0
 10
2.9021000000000003
 20
23.784800000000001
 30
0.0
 10
0.2884
 20
23.450700000000001
 30
0.0
 10
0.2884
 20
23.450700000000001
 30
0.0
 10
0.2884
 20
23.450700000000001
 30
0.0
 10
0.2884
 20
23.450700000000001
 30
0.0
 10
-2.3449
 20
22.8611
 30
0.0
 10
-2.3449
 20
22.8611
 30
0.0
 10
-2.3449
 20
22.8611
 30
0.0
 10
-2.3449
 20
22.8611
 30
0.0
 10
-4.8997000000000002
 20
22.016100000000002
 30
0.0
 10
-4.8997000000000002
 20
22.016100000000002
 30
0.0
 10
-4.8997000000000002
 20
22.016100000000002
 30
0.0
 10
-4.8997000000000002
 20
22.016100000000002
 30
0.0
 10
-7.3169000000000004
 20
20.837
 30
0.0
 10
-7.3169000000000004
 20
20.837
 30
0.0
 10
-7.3169000000000004
 20
20.837
 30
0.0
 10
-7.3169000000000004
 20
20.837
 30
0.0
 10
-9.5376000000000012
 20
19.3827
 30
0.0
 10
-9.5376000000000012
 20
19.3827
 30
0.0
 10
-9.5376000000000012
 20
19.3827
 30
0.0
 10
-9.5376000000000012
 20
19.3827
 30
0.0
 10
-11.6403
 20
17.692700000000002
 30
0.0
 10
-11.6403
 20
17.692700000000002
 30
0.0
 10
-11.6403
 20
17.692700000000002
 30
0.0
 10
-11.6403
 20
17.692700000000002
 30
0.0
 10
-13.546600000000002
 20
15.7864
 30
0.0
 10
-13.546600000000002
 20
15.7864
 30
0.0
 10
-13.546600000000002
 20
15.7864
 30
0.0
 10
-13.546600000000002
 20
15.7864
 30
0.0
 10
-15.177700000000002
 20
13.6837
 30
0.0
 10
-15.177700000000002
 20
13.6837
 30
0.0
 10
-15.177700000000002
 20
13.6837
 30
0.0
 10
-15.177700000000002
 20
13.6837
 30
0.0
 10
-16.5533
 20
11.404
 30
0.0
 10
-16.5533
 20
11.404
 30
0.0
 10
-16.5533
 20
11.404
 30
0.0
 10
-16.5533
 20
11.404
 30
0.0
 10
-17.673500000000001
 20
8.9672000000000001
 30
0.0
 10
-17.673500000000001
 20
8.9672000000000001
 30
0.0
 10
-17.673500000000001
 20
8.9672000000000001
 30
0.0
 10
-17.673500000000001
 20
8.9672000000000001
 30
0.0
 10
-18.459600000000002
 20
6.4123999999999999
 30
0.0
 10
-18.459600000000002
 20
6.4123999999999999
 30
0.0
 10
-18.459600000000002
 20
6.4123999999999999
 30
0.0
 10
-18.459600000000002
 20
6.4123999999999999
 30
0.0
 10
-18.970500000000001
 20
3.7987000000000002
 30
0.0
 10
-18.970500000000001
 20
3.7987000000000002
 30
0.0
 10
-18.970500000000001
 20
3.7987000000000002
 30
0.0
 10
-18.970500000000001
 20
3.7987000000000002
 30
0.0
 10
-19.2456
 20
1.1064000000000001
 30
0.0
 10
-19.2456
 20
1.1064000000000001
 30
0.0
 10
-19.2456
 20
1.1064000000000001
 30
0.0
 10
-19.2456
 20
1.1064000000000001
 30
0.0
 10
-19.1081
 20
-1.5663
 30
0.0
 10
-19.1081
 20
-1.5663
 30
0.0
 10
-19.1081
 20
-1.5663
 30
0.0
 10
-19.1081
 20
-1.5663
 30
0.0
 10
-18.715
 20
-4.1996000000000002
 30
0.0
 10
-18.715
 20
-4.1996000000000002
 30
0.0
 10
-18.715
 20
-4.1996000000000002
 30
0.0
 10
-18.715
 20
-4.1996000000000002
 30
0.0
 10
-17.9879
 20
-6.8132999999999999
 30
0.0
 10
-17.9879
 20
-6.8132999999999999
 30
0.0
 10
-17.9879
 20
-6.8132999999999999
 30
0.0
 10
-17.9879
 20
-6.8132999999999999
 30
0.0
 10
-17.005300000000002
 20
-9.3091000000000008
 30
0.0
 10
-17.005300000000002
 20
-9.3091000000000008
 30
0.0
 10
-17.005300000000002
 20
-9.3091000000000008
 30
0.0
 10
-17.005300000000002
 20
-9.3091000000000008
 30
0.0
 10
-15.767200000000001
 20
-11.667400000000001
 30
0.0
 10
-15.767200000000001
 20
-11.667400000000001
 30
0.0
 10
-15.767200000000001
 20
-11.667400000000001
 30
0.0
 10
-15.767200000000001
 20
-11.667400000000001
 30
0.0
 10
-14.1951
 20
-13.8291
 30
0.0
 10
-14.1951
 20
-13.8291
 30
0.0
 10
-14.1951
 20
-13.8291
 30
0.0
 10
-14.1951
 20
-13.8291
 30
0.0
 10
-12.426400000000001
 20
-15.853200000000001
 30
0.0
 10
-12.426400000000001
 20
-15.853200000000001
 30
0.0
 10
-12.426400000000001
 20
-15.853200000000001
 30
0.0
 10
-12.426400000000001
 20
-15.853200000000001
 30
0.0
 10
-10.4612
 20
-17.6219
 30
0.0
 10
-10.4612
 20
-17.6219
 30
0.0
 10
-10.4612
 20
-17.6219
 30
0.0
 10
-10.4612
 20
-17.6219
 30
0.0
 10
-8.2405000000000008
 20
-19.194100000000002
 30
0.0
 10
-8.2405000000000008
 20
-19.194100000000002
 30
0.0
 10
-8.2405000000000008
 20
-19.194100000000002
 30
0.0
 10
-8.2405000000000008
 20
-19.194100000000002
 30
0.0
 10
-5.8822999999999999
 20
-20.432100000000002
 30
0.0
 10
-5.8822999999999999
 20
-20.432100000000002
 30
0.0
 10
-5.8822999999999999
 20
-20.432100000000002
 30
0.0
 10
-5.8822999999999999
 20
-20.432100000000002
 30
0.0
 10
-3.3865000000000003
 20
-21.4147
 30
0.0
 10
-3.3865000000000003
 20
-21.4147
 30
0.0
 10
-3.3865000000000003
 20
-21.4147
 30
0.0
 10
-3.3865000000000003
 20
-21.4147
 30
0.0
 10
-0.8317
 20
-22.1418
 30
0.0
 10
-0.8317
 20
-22.1418
 30
0.0
 10
-0.8317
 20
-22.1418
 30
0.0
 10
-0.8317
 20
-22.1418
 30
0.0
 10
1.8606
 20
-22.5349
 30
0.0
 10
1.8606
 20
-22.5349
 30
0.0
 10
1.8606
 20
-22.5349
 30
0.0
 10
1.8606
 20
-22.5349
 30
0.0
 10
4.5333000000000006
 20
-22.6724
 30
0.0
 10
4.5333000000000006
 20
-22.6724
 30
0.0
 10
4.5333000000000006
 20
-22.6724
 30
0.0
 10
4.5333000000000006
 20
-22.6724
 30
0.0
 10
7.1666000000000007
 20
-22.397300000000001
 30
0.0
 10
7.1666000000000007
 20
-22.397300000000001
 30
0.0
 10
7.1666000000000007
 20
-22.397300000000001
 30
0.0
 10
7.1666000000000007
 20
-22.397300000000001
 30
0.0
 10
9.7803000000000004
 20
-21.886400000000002
 30
0.0
 10
9.7803000000000004
 20
-21.886400000000002
 30
0.0
 10
9.7803000000000004
 20
-21.886400000000002
 30
0.0
 10
9.7803000000000004
 20
-21.886400000000002
 30
0.0
 10
12.335100000000001
 20
-21.100300000000001
 30
0.0
 10
12.335100000000001
 20
-21.100300000000001
 30
0.0
 10
12.335100000000001
 20
-21.100300000000001
 30
0.0
 10
12.335100000000001
 20
-21.100300000000001
 30
0.0
 10
14.830900000000002
 20
-19.9801
 30
0.0
 10
14.830900000000002
 20
-19.9801
 30
0.0
 10
14.830900000000002
 20
-19.9801
 30
0.0
 10
14.830900000000002
 20
-19.9801
 30
0.0
 10
17.110500000000002
 20
-18.604500000000002
 30
0.0
 10
17.110500000000002
 20
-18.604500000000002
 30
0.0
 10
17.110500000000002
 20
-18.604500000000002
 30
0.0
 10
17.110500000000002
 20
-18.604500000000002
 30
0.0
 10
19.2133
 20
-16.973400000000002
 30
0.0
 10
19.2133
 20
-16.973400000000002
 30
0.0
 10
19.2133
 20
-16.973400000000002
 30
0.0
 10
19.2133
 20
-16.973400000000002
 30
0.0
 10
21.119500000000002
 20
-15.0671
 30
0.0
 10
21.119500000000002
 20
-15.0671
 30
0.0
 10
21.119500000000002
 20
-15.0671
 30
0.0
 10
21.119500000000002
 20
-15.0671
 30
0.0
 10
22.8096
 20
-13.043000000000001
 30
0.0
 10
22.8096
 20
-13.043000000000001
 30
0.0
 10
22.8096
 20
-13.043000000000001
 30
0.0
 10
22.8096
 20
-13.043000000000001
 30
0.0
 10
24.2638
 20
-10.7437
 30
0.0
 10
24.2638
 20
-10.7437
 30
0.0
 10
24.2638
 20
-10.7437
 30
0.0
 10
24.2638
 20
-10.7437
 30
0.0
 10
25.443000000000001
 20
-8.3265000000000011
 30
0.0
 10
25.443000000000001
 20
-8.3265000000000011
 30
0.0
 10
25.443000000000001
 20
-8.3265000000000011
 30
0.0
 10
25.443000000000001
 20
-8.3265000000000011
 30
0.0
 10
26.288
 20
-5.8307000000000002
 30
0.0
 10
26.288
 20
-5.8307000000000002
 30
0.0
 10
26.288
 20
-5.8307000000000002
 30
0.0
 10
26.288
 20
-5.8307000000000002
 30
0.0
 10
26.877600000000001
 20
-3.2170000000000001
 30
0.0
 10
26.877600000000001
 20
-3.2170000000000001
 30
0.0
 10
26.877600000000001
 20
-3.2170000000000001
 30
0.0
 10
26.877600000000001
 20
-3.2170000000000001
 30
0.0
 10
27.133000000000003
 20
-0.5247000000000001
 30
0.0
 10
27.133000000000003
 20
-0.5247000000000001
 30
0.0
 10
27.133000000000003
 20
-0.5247000000000001
 30
0.0
 10
27.133000000000003
 20
-0.5247000000000001
 30
0.0
 10
27.211600000000001
 20
0.5955
 30
0.0
 10
27.211600000000001
 20
0.5955
 30
0.0
  0
SPLINE
  5
2B
100
AcDbEntity
  8
Ebene 1
370
    40
 62
     0
100
AcDbSpline
210
0.0
220
0.0
230
1.0
 70
     0
 71
     3
 72
     8
 73
     4
 74
     0
 42
0.0000000001
 43
0.0000000001
 40
0.0
 40
0.0
 40
0.0
 40
0.0
 40
1.0
 40
1.0
 40
1.0
 40
1.0
 10
9.1908000000000012
 20
-0.1906
 30
0.0
 10
9.1908000000000012
 20
-0.1906
 30
0.0
 10
12.1386
 20
-0.1906
 30
0.0
 10
12.1386
 20
-0.1906
 30
0.0
  0
SPLINE
  5
2C
100
AcDbEntity
  8
Ebene 1
370
    40
 62
     0
100
AcDbSpline
210
0.0
220
0.0
230
1.0
 70
     0
 71
     3
 72
     8
 73
     4
 74
     0
 42
0.0000000001
 43
0.0000000001
 40
0.0
 40
0.0
 40
0.0
 40
0.0
 40
1.0
 40
1.0
 40
1.0
 40
1.0
 10
9.1908000000000012
 20
4.2507000000000001
 30
0.0
 10
9.1908000000000012
 20
4.2507000000000001
 30
0.0
 10
12.1386
 20
4.2507000000000001
 30
0.0
 10
12.1386
 20
4.2507000000000001
 30
0.0
  0
SPLINE
  5
2D
100
AcDbEntity
  8
Ebene 1
370
    40
 62
     0
100
AcDbSpline
210
0.0
220
0.0
230
1.0
 70
     0
 71
     3
 72
     8
 73
     4
 74
     0
 42
0.0000000001
 43
0.0000000001
 40
0.0
 40
0.0
 40
0.0
 40
0.0
 40
1.0
 40
1.0
 40
1.0
 40
1.0
 10
12.1386
 20
1.3029000000000002
 30
0.0
 10
12.1386
 20
1.3029000000000002
 30
0.0
 10
12.1386
 20
4.2507000000000001
 30
0.0
 10
12.1386
 20
4.2507000000000001
 30
0.0
  0
SPLINE
  5
2E
100
AcDbEntity
  8
Ebene 1
370
    40
 62
     0
100
AcDbSpline
210
0.0
220
0.0
230
1.0
 70
     0
 71
     3
 72
     8
 73
     4
 74
     0
 42
0.0000000001
 43
0.0000000001
 40
0.0
 40
0.0
 40
0.0
 40
0.0
 40
1.0
 40
1.0
 40
1.0
 40
1.0
 10
9.1908000000000012
 20
1.3029000000000002
 30
0.0
 10
9.1908000000000012
 20
1.3029000000000002
 30
0.0
 10
9.1908000000000012
 20
4.2507000000000001
 30
0.0
 10
9.1908000000000012
 20
4.2507000000000001
 30
0.0
  0
SPLINE
  5
2F
100
AcDbEntity
  8
Ebene 1
370
    40
 62
     0
100
AcDbSpline
210
0.0
220
0.0
230
1.0
 70
     0
 71
     3
 72
     8
 73
     4
 74
     0
 42
0.0000000001
 43
0.0000000001
 40
0.0
 40
0.0
 40
0.0
 40
0.0
 40
1.0
 40
1.0
 40
1.0
 40
1.0
 10
9.1908000000000012
 20
1.3029000000000002
 30
0.0
 10
9.1908000000000012
 20
1.3029000000000002
 30
0.0
 10
12.1386
 20
1.3029000000000002
 30
0.0
 10
12.1386
 20
1.3029000000000002
 30
0.0
  0
SPLINE
  5
30
100
AcDbEntity
  8
Ebene 1
370
    40
 62
     0
100
AcDbSpline
210
0.0
220
0.0
230
1.0
 70
     0
 71
     3
 72
     8
 73
     4
 74
     0
 42
0.0000000001
 43
0.0000000001
 40
0.0
 40
0.0
 40
0.0
 40
0.0
 40
1.0
 40
1.0
 40
1.0
 40
1.0
 10
4.7298
 20
-3.1384000000000003
 30
0.0
 10
4.7298
 20
-3.1384000000000003
 30
0.0
 10
7.6776
 20
-3.1384000000000003
 30
0.0
 10
7.6776
 20
-3.1384000000000003
 30
0.0
  0
SPLINE
  5
31
100
AcDbEntity
  8
Ebene 1
370
    40
 62
     0
100
AcDbSpline
210
0.0
220
0.0
230
1.0
 70
     0
 71
     3
 72
     8
 73
     4
 74
     0
 42
0.0000000001
 43
0.0000000001
 40
0.0
 40
0.0
 40
0.0
 40
0.0
 40
1.0
 40
1.0
 40
1.0
 40
1.0
 10
7.6776
 20
-0.1906
 30
0.0
 10
7.6776
 20
-0.1906
 30
0.0
 10
7.6776
 20
-3.1384000000000003
 30
0.0
 10
7.6776
 20
-3.1384000000000003
 30
0.0
  0
SPLINE
  5
32
100
AcDbEntity
  8
Ebene 1
370
    40
 62
     0
100
AcDbSpline
210
0.0
220
0.0
230
1.0
 70
     0
 71
     3
 72
     8
 73
     4
 74
     0
 42
0.0000000001
 43
0.0000000001
 40
0.0
 40
0.0
 40
0.0
 40
0.0
 40
1.0
 40
1.0
 40
1.0
 40
1.0
 10
4.7298
 20
-0.1906
 30
0.0
 10
4.7298
 20
-0.1906
 30
0.0
 10
4.7298
 20
-3.1384000000000003
 30
0.0
 10
4.7298
 20
-3.1384000000000003
 30
0.0
  0
SPLINE
  5
33
100
AcDbEntity
  8
Ebene 1
370
    40
 62
     0
100
AcDbSpline
210
0.0
220
0.0
230
1.0
 70
     0
 71
     3
 72
     8
 73
     4
 74
     0
 42
0.0000000001
 43
0.0000000001
 40
0.0
 40
0.0
 40
0.0
 40
0.0
 40
1.0
 40
1.0
 40
1.0
 40
1.0
 10
4.7298
 20
-0.1906
 30
0.0
 10
4.7298
 20
-0.1906
 30
0.0
 10
7.6776
 20
-0.1906
 30
0.0
 10
7.6776
 20
-0.1906
 30
0.0
  0
SPLINE
  5
34
100
AcDbEntity
  8
Ebene 1
370
    40
 62
     0
100
AcDbSpline
210
0.0
220
0.0
230
1.0
 70
     0
 71
     3
 72
     8
 73
     4
 74
     0
 42
0.0000000001
 43
0.0000000001
 40
0.0
 40
0.0
 40
0.0
 40
0.0
 40
1.0
 40
1.0
 40
1.0
 40
1.0
 10
0.2884
 20
-3.1384000000000003
 30
0.0
 10
0.2884
 20
-3.1384000000000003
 30
0.0
 10
3.2362000000000002
 20
-3.1384000000000003
 30
0.0
 10
3.2362000000000002
 20
-3.1384000000000003
 30
0.0
  0
SPLINE
  5
35
100
AcDbEntity
  8
Ebene 1
370
    40
 62
     0
100
AcDbSpline
210
0.0
220
0.0
230
1.0
 70
     0
 71
     3
 72
     8
 73
     4
 74
     0
 42
0.0000000001
 43
0.0000000001
 40
0.0
 40
0.0
 40
0.0
 40
0.0
 40
1.0
 40
1.0
 40
1.0
 40
1.0
 10
0.2884
 20
-3.1384000000000003
 30
0.0
 10
0.2884
 20
-3.1384000000000003
 30
0.0
 10
0.2884
 20
-0.1906
 30
0.0
 10
0.2884
 20
-0.1906
 30
0.0
  0
SPLINE
  5
36
100
AcDbEntity
  8
Ebene 1
370
    40
 62
     0
100
AcDbSpline
210
0.0
220
0.0
230
1.0
 70
     0
 71
     3
 72
     8
 73
     4
 74
     0
 42
0.0000000001
 43
0.0000000001
 40
0.0
 40
0.0
 40
0.0
 40
0.0
 40
1.0
 40
1.0
 40
1.0
 40
1.0
 10
3.2362000000000002
 20
-3.1384000000000003
 30
0.0
 10
3.2362000000000002
 20
-3.1384000000000003
 30
0.0
 10
3.2362000000000002
 20
-0.1906
 30
0.0
 10
3.2362000000000002
 20
-0.1906
 30
0.0
  0
SPLINE
  5
37
100
AcDbEntity
  8
Ebene 1
370
    40
 62
     0
100
AcDbSpline
210
0.0
220
0.0
230
1.0
 70
     0
 71
     3
 72
     8
 73
     4
 74
     0
 42
0.0000000001
 43
0.0000000001
 40
0.0
 40
0.0
 40
0.0
 40
0.0
 40
1.0
 40
1.0
 40
1.0
 40
1.0
 10
0.2884
 20
-0.1906
 30
0.0
 10
0.2884
 20
-0.1906
 30
0.0
 10
3.2362000000000002
 20
-0.1906
 30
0.0
 10
3.2362000000000002
 20
-0.1906
 30
0.0
  0
SPLINE
  5
38
100
AcDbEntity
  8
Ebene 1
370
    40
 62
     0
100
AcDbSpline
210
0.0
220
0.0
230
1.0
 70
     0
 71
     3
 72
     8
 73
     4
 74
     0
 42
0.0000000001
 43
0.0000000001
 40
0.0
 40
0.0
 40
0.0
 40
0.0
 40
1.0
 40
1.0
 40
1.0
 40
1.0
 10
4.7298
 20
4.2507000000000001
 30
0.0
 10
4.7298
 20
4.2507000000000001
 30
0.0
 10
7.6776
 20
4.2507000000000001
 30
0.0
 10
7.6776
 20
4.2507000000000001
 30
0.0
  0
SPLINE
  5
39
100
AcDbEntity
  8
Ebene 1
370
    40
 62
     0
100
AcDbSpline
210
0.0
220
0.0
230
1.0
 70
     0
 71
     3
 72
     8
 73
     4
 74
     0
 42
0.0000000001
 43
0.0000000001
 40
0.0
 40
0.0
 40
0.0
 40
0.0
 40
1.0
 40
1.0
 40
1.0
 40
1.0
 10
7.6776
 20
1.3029000000000002
 30
0.0
 10
7.6776
 20
1.3029000000000002
 30
0.0
 10
7.6776
 20
4.2507000000000001
 30
0.0
 10
7.6776
 20
4.2507000000000001
 30
0.0
  0
SPLINE
  5
3A
100
AcDbEntity
  8
Ebene 1
370
    40
 62
     0
100
AcDbSpline
210
0.0
220
0.0
230
1.0
 70
     0
 71
     3
 72
     8
 73
     4
 74
     0
 42
0.0000000001
 43
0.0000000001
 40
0.0
 40
0.0
 40
0.0
 40
0.0
 40
1.0
 40
1.0
 40
1.0
 40
1.0
 10
4.7298
 20
1.3029000000000002
 30
0.0
 10
4.7298
 20
1.3029000000000002
 30
0.0
 10
4.7298
 20
4.2507000000000001
 30
0.0
 10
4.7298
 20
4.2507000000000001
 30
0.0
  0
SPLINE
  5
3B
100
AcDbEntity
  8
Ebene 1
370
    40
 62
     0
100
AcDbSpline
210
0.0
220
0.0
230
1.0
 70
     0
 71
     3
 72
     8
 73
     4
 74
     0
 42
0.0000000001
 43
0.0000000001
 40
0.0
 40
0.0
 40
0.0
 40
0.0
 40
1.0
 40
1.0
 40
1.0
 40
1.0
 10
-4.1726000000000001
 20
-0.1906
 30
0.0
 10
-4.1726000000000001
 20
-0.1906
 30
0.0
 10
-1.2248000000000001
 20
-0.1906
 30
0.0
 10
-1.2248000000000001
 20
-0.1906
 30
0.0
  0
SPLINE
  5
3C
100
AcDbEntity
  8
Ebene 1
370
    40
 62
     0
100
AcDbSpline
210
0.0
220
0.0
230
1.0
 70
     0
 71
     3
 72
     8
 73
     4
 74
     0
 42
0.0000000001
 43
0.0000000001
 40
0.0
 40
0.0
 40
0.0
 40
0.0
 40
1.0
 40
1.0
 40
1.0
 40
1.0
 10
-4.1726000000000001
 20
4.2507000000000001
 30
0.0
 10
-4.1726000000000001
 20
4.2507000000000001
 30
0.0
 10
-1.2248000000000001
 20
4.2507000000000001
 30
0.0
 10
-1.2248000000000001
 20
4.2507000000000001
 30
0.0
  0
SPLINE
  5
3D
100
AcDbEntity
  8
Ebene 1
370
    40
 62
     0
100
AcDbSpline
210
0.0
220
0.0
230
1.0
 70
     0
 71
     3
 72
     8
 73
     4
 74
     0
 42
0.0000000001
 43
0.0000000001
 40
0.0
 40
0.0
 40
0.0
 40
0.0
 40
1.0
 40
1.0
 40
1.0
 40
1.0
 10
-4.1726000000000001
 20
4.2507000000000001
 30
0.0
 10
-4.1726000000000001
 20
4.2507000000000001
 30
0.0
 10
-4.1726000000000001
 20
1.3029000000000002
 30
0.0
 10
-4.1726000000000001
 20
1.3029000000000002
 30
0.0
  0
SPLINE
  5
3E
100
AcDbEntity
  8
Ebene 1
370
    40
 62
     0
100
AcDbSpline
210
0.0
220
0.0
230
1.0
 70
     0
 71
     3
 72
     8
 73
     4
 74
     0
 42
0.0000000001
 43
0.0000000001
 40
0.0
 40
0.0
 40
0.0
 40
0.0
 40
1.0
 40
1.0
 40
1.0
 40
1.0
 10
-1.2248000000000001
 20
4.2507000000000001
 30
0.0
 10
-1.2248000000000001
 20
4.2507000000000001
 30
0.0
 10
-1.2248000000000001
 20
1.3029000000000002
 30
0.0
 10
-1.2248000000000001
 20
1.3029000000000002
 30
0.0
  0
SPLINE
  5
3F
100
AcDbEntity
  8
Ebene 1
370
    40
 62
     0
100
AcDbSpline
210
0.0
220
0.0
230
1.0
 70
     0
 71
     3
 72
     8
 73
     4
 74
     0
 42
0.0000000001
 43
0.0000000001
 40
0.0
 40
0.0
 40
0.0
 40
0.0
 40
1.0
 40
1.0
 40
1.0
 40
1.0
 10
-4.1726000000000001
 20
1.3029000000000002
 30
0.0
 10
-4.1726000000000001
 20
1.3029000000000002
 30
0.0
 10
-1.2248000000000001
 20
1.3029000000000002
 30
0.0
 10
-1.2248000000000001
 20
1.3029000000000002
 30
0.0
  0
SPLINE
  5
40
100
AcDbEntity
  8
Ebene 1
370
    40
 62
     0
100
AcDbSpline
210
0.0
220
0.0
230
1.0
 70
     0
 71
     3
 72
     8
 73
     4
 74
     0
 42
0.0000000001
 43
0.0000000001
 40
0.0
 40
0.0
 40
0.0
 40
0.0
 40
1.0
 40
1.0
 40
1.0
 40
1.0
 10
13.651800000000001
 20
-3.1384000000000003
 30
0.0
 10
13.651800000000001
 20
-3.1384000000000003
 30
0.0
 10
16.521000000000001
 20
-3.1384000000000003
 30
0.0
 10
16.521000000000001
 20
-3.1384000000000003
 30
0.0
  0
SPLINE
  5
41
100
AcDbEntity
  8
Ebene 1
370
    40
 62
     0
100
AcDbSpline
210
0.0
220
0.0
230
1.0
 70
     0
 71
     3
 72
     8
 73
     4
 74
     0
 42
0.0000000001
 43
0.0000000001
 40
0.0
 40
0.0
 40
0.0
 40
0.0
 40
1.0
 40
1.0
 40
1.0
 40
1.0
 10
16.521000000000001
 20
-0.1906
 30
0.0
 10
16.521000000000001
 20
-0.1906
 30
0.0
 10
16.521000000000001
 20
-3.1384000000000003
 30
0.0
 10
16.521000000000001
 20
-3.1384000000000003
 30
0.0
  0
SPLINE
  5
42
100
AcDbEntity
  8
Ebene 1
370
    40
 62
     0
100
AcDbSpline
210
0.0
220
0.0
230
1.0
 70
     0
 71
     3
 72
     8
 73
     4
 74
     0
 42
0.0000000001
 43
0.0000000001
 40
0.0
 40
0.0
 40
0.0
 40
0.0
 40
1.0
 40
1.0
 40
1.0
 40
1.0
 10
13.651800000000001
 20
-0.1906
 30
0.0
 10
13.651800000000001
 20
-0.1906
 30
0.0
 10
13.651800000000001
 20
-3.1384000000000003
 30
0.0
 10
13.651800000000001
 20
-3.1384000000000003
 30
0.0
  0
SPLINE
  5
43
100
AcDbEntity
  8
Ebene 1
370
    40
 62
     0
100
AcDbSpline
210
0.0
220
0.0
230
1.0
 70
     0
 71
     3
 72
     8
 73
     4
 74
     0
 42
0.0000000001
 43
0.0000000001
 40
0.0
 40
0.0
 40
0.0
 40
0.0
 40
1.0
 40
1.0
 40
1.0
 40
1.0
 10
13.651800000000001
 20
-0.1906
 30
0.0
 10
13.651800000000001
 20
-0.1906
 30
0.0
 10
16.521000000000001
 20
-0.1906
 30
0.0
 10
16.521000000000001
 20
-0.1906
 30
0.0
  0
SPLINE
  5
44
100
AcDbEntity
  8
Ebene 1
370
    40
 62
     0
100
AcDbSpline
210
0.0
220
0.0
230
1.0
 70
     0
 71
     3
 72
     8
 73
     4
 74
     0
 42
0.0000000001
 43
0.0000000001
 40
0.0
 40
0.0
 40
0.0
 40
0.0
 40
1.0
 40
1.0
 40
1.0
 40
1.0
 10
13.651800000000001
 20
4.2507000000000001
 30
0.0
 10
13.651800000000001
 20
4.2507000000000001
 30
0.0
 10
16.521000000000001
 20
4.2507000000000001
 30
0.0
 10
16.521000000000001
 20
4.2507000000000001
 30
0.0
  0
SPLINE
  5
45
100
AcDbEntity
  8
Ebene 1
370
    40
 62
     0
100
AcDbSpline
210
0.0
220
0.0
230
1.0
 70
     0
 71
     3
 72
     8
 73
     4
 74
     0
 42
0.0000000001
 43
0.0000000001
 40
0.0
 40
0.0
 40
0.0
 40
0.0
 40
1.0
 40
1.0
 40
1.0
 40
1.0
 10
16.521000000000001
 20
1.3029000000000002
 30
0.0
 10
16.521000000000001
 20
1.3029000000000002
 30
0.0
 10
16.521000000000001
 20
4.2507000000000001
 30
0.0
 10
16.521000000000001
 20
4.2507000000000001
 30
0.0
  0
SPLINE
  5
46
100
AcDbEntity
  8
Ebene 1
370
    40
 62
     0
100
AcDbSpline
210
0.0
220
0.0
230
1.0
 70
     0
 71
     3
 72
     8
 73
     4
 74
     0
 42
0.0000000001
 43
0.0000000001
 40
0.0
 40
0.0
 40
0.0
 40
0.0
 40
1.0
 40
1.0
 40
1.0
 40
1.0
 10
13.651800000000001
 20
1.3029000000000002
 30
0.0
 10
13.651800000000001
 20
1.3029000000000002
 30
0.0
 10
13.651800000000001
 20
4.2507000000000001
 30
0.0
 10
13.651800000000001
 20
4.2507000000000001
 30
0.0
  0
SPLINE
  5
47
100
AcDbEntity
  8
Ebene 1
370
    40
 62
     0
100
AcDbSpline
210
0.0
220
0.0
230
1.0
 70
     0
 71
     3
 72
     8
 73
     4
 74
     0
 42
0.0000000001
 43
0.0000000001
 40
0.0
 40
0.0
 40
0.0
 40
0.0
 40
1.0
 40
1.0
 40
1.0
 40
1.0
 10
13.651800000000001
 20
1.3029000000000002
 30
0.0
 10
13.651800000000001
 20
1.3029000000000002
 30
0.0
 10
16.521000000000001
 20
1.3029000000000002
 30
0.0
 10
16.521000000000001
 20
1.3029000000000002
 30
0.0
  0
SPLINE
  5
48
100
AcDbEntity
  8
Ebene 1
370
    40
 62
     0
100
AcDbSpline
210
0.0
220
0.0
230
1.0
 70
     0
 71
     3
 72
     8
 73
     4
 74
     0
 42
0.0000000001
 43
0.0000000001
 40
0.0
 40
0.0
 40
0.0
 40
0.0
 40
1.0
 40
1.0
 40
1.0
 40
1.0
 10
9.1908000000000012
 20
-3.1384000000000003
 30
0.0
 10
9.1908000000000012
 20
-3.1384000000000003
 30
0.0
 10
12.1386
 20
-3.1384000000000003
 30
0.0
 10
12.1386
 20
-3.1384000000000003
 30
0.0
  0
SPLINE
  5
49
100
AcDbEntity
  8
Ebene 1
370
    40
 62
     0
100
AcDbSpline
210
0.0
220
0.0
230
1.0
 70
     0
 71
     3
 72
     8
 73
     4
 74
     0
 42
0.0000000001
 43
0.0000000001
 40
0.0
 40
0.0
 40
0.0
 40
0.0
 40
1.0
 40
1.0
 40
1.0
 40
1.0
 10
12.1386
 20
-0.1906
 30
0.0
 10
12.1386
 20
-0.1906
 30
0.0
 10
12.1386
 20
-3.1384000000000003
 30
0.0
 10
12.1386
 20
-3.1384000000000003
 30
0.0
  0
SPLINE
  5
4A
100
AcDbEntity
  8
Ebene 1
370
    40
 62
     0
100
AcDbSpline
210
0.0
220
0.0
230
1.0
 70
     0
 71
     3
 72
     8
 73
     4
 74
     0
 42
0.0000000001
 43
0.0000000001
 40
0.0
 40
0.0
 40
0.0
 40
0.0
 40
1.0
 40
1.0
 40
1.0
 40
1.0
 10
9.1908000000000012
 20
-0.1906
 30
0.0
 10
9.1908000000000012
 20
-0.1906
 30
0.0
 10
9.1908000000000012
 20
-3.1384000000000003
 30
0.0
 10
9.1908000000000012
 20
-3.1384000000000003
 30
0.0
  0
SPLINE
  5
4B
100
AcDbEntity
  8
Ebene 1
370
    40
 62
     0
100
AcDbSpline
210
0.0
220
0.0
230
1.0
 70
     0
 71
     3
 72
     8
 73
     4
 74
     0
 42
0.0000000001
 43
0.0000000001
 40
0.0
 40
0.0
 40
0.0
 40
0.0
 40
1.0
 40
1.0
 40
1.0
 40
1.0
 10
4.7298
 20
5.7639000000000005
 30
0.0
 10
4.7298
 20
5.7639000000000005
 30
0.0
 10
7.6776
 20
5.7639000000000005
 30
0.0
 10
7.6776
 20
5.7639000000000005
 30
0.0
  0
SPLINE
  5
4C
100
AcDbEntity
  8
Ebene 1
370
    40
 62
     0
100
AcDbSpline
210
0.0
220
0.0
230
1.0
 70
     0
 71
     3
 72
     8
 73
     4
 74
     0
 42
0.0000000001
 43
0.0000000001
 40
0.0
 40
0.0
 40
0.0
 40
0.0
 40
1.0
 40
1.0
 40
1.0
 40
1.0
 10
0.2884
 20
8.7117000000000004
 30
0.0
 10
0.2884
 20
8.7117000000000004
 30
0.0
 10
3.2362000000000002
 20
8.7117000000000004
 30
0.0
 10
3.2362000000000002
 20
8.7117000000000004
 30
0.0
  0
SPLINE
  5
4D
100
AcDbEntity
  8
Ebene 1
370
    40
 62
     0
100
AcDbSpline
210
0.0
220
0.0
230
1.0
 70
     0
 71
     3
 72
     8
 73
     4
 74
     0
 42
0.0000000001
 43
0.0000000001
 40
0.0
 40
0.0
 40
0.0
 40
0.0
 40
1.0
 40
1.0
 40
1.0
 40
1.0
 10
0.2884
 20
8.7117000000000004
 30
0.0
 10
0.2884
 20
8.7117000000000004
 30
0.0
 10
0.2884
 20
5.7639000000000005
 30
0.0
 10
0.2884
 20
5.7639000000000005
 30
0.0
  0
SPLINE
  5
4E
100
AcDbEntity
  8
Ebene 1
370
    40
 62
     0
100
AcDbSpline
210
0.0
220
0.0
230
1.0
 70
     0
 71
     3
 72
     8
 73
     4
 74
     0
 42
0.0000000001
 43
0.0000000001
 40
0.0
 40
0.0
 40
0.0
 40
0.0
 40
1.0
 40
1.0
 40
1.0
 40
1.0
 10
3.2362000000000002
 20
8.7117000000000004
 30
0.0
 10
3.2362000000000002
 20
8.7117000000000004
 30
0.0
 10
3.2362000000000002
 20
5.7639000000000005
 30
0.0
 10
3.2362000000000002
 20
5.7639000000000005
 30
0.0
  0
SPLINE
  5
4F
100
AcDbEntity
  8
Ebene 1
370
    40
 62
     0
100
AcDbSpline
210
0.0
220
0.0
230
1.0
 70
     0
 71
     3
 72
     8
 73
     4
 74
     0
 42
0.0000000001
 43
0.0000000001
 40
0.0
 40
0.0
 40
0.0
 40
0.0
 40
1.0
 40
1.0
 40
1.0
 40
1.0
 10
0.2884
 20
5.7639000000000005
 30
0.0
 10
0.2884
 20
5.7639000000000005
 30
0.0
 10
3.2362000000000002
 20
5.7639000000000005
 30
0.0
 10
3.2362000000000002
 20
5.7639000000000005
 30
0.0
  0
SPLINE
  5
50
100
AcDbEntity
  8
Ebene 1
370
    40
 62
     0
100
AcDbSpline
210
0.0
220
0.0
230
1.0
 70
     0
 71
     3
 72
     8
 73
     4
 74
     0
 42
0.0000000001
 43
0.0000000001
 40
0.0
 40
0.0
 40
0.0
 40
0.0
 40
1.0
 40
1.0
 40
1.0
 40
1.0
 10
-8.5549999999999997
 20
-3.1384000000000003
 30
0.0
 10
-8.5549999999999997
 20
-3.1384000000000003
 30
0.0
 10
-5.6858000000000004
 20
-3.1384000000000003
 30
0.0
 10
-5.6858000000000004
 20
-3.1384000000000003
 30
0.0
  0
SPLINE
  5
51
100
AcDbEntity
  8
Ebene 1
370
    40
 62
     0
100
AcDbSpline
210
0.0
220
0.0
230
1.0
 70
     0
 71
     3
 72
     8
 73
     4
 74
     0
 42
0.0000000001
 43
0.0000000001
 40
0.0
 40
0.0
 40
0.0
 40
0.0
 40
1.0
 40
1.0
 40
1.0
 40
1.0
 10
-8.5549999999999997
 20
-3.1384000000000003
 30
0.0
 10
-8.5549999999999997
 20
-3.1384000000000003
 30
0.0
 10
-8.5549999999999997
 20
-0.1906
 30
0.0
 10
-8.5549999999999997
 20
-0.1906
 30
0.0
  0
SPLINE
  5
52
100
AcDbEntity
  8
Ebene 1
370
    40
 62
     0
100
AcDbSpline
210
0.0
220
0.0
230
1.0
 70
     0
 71
     3
 72
     8
 73
     4
 74
     0
 42
0.0000000001
 43
0.0000000001
 40
0.0
 40
0.0
 40
0.0
 40
0.0
 40
1.0
 40
1.0
 40
1.0
 40
1.0
 10
-5.6858000000000004
 20
-3.1384000000000003
 30
0.0
 10
-5.6858000000000004
 20
-3.1384000000000003
 30
0.0
 10
-5.6858000000000004
 20
-0.1906
 30
0.0
 10
-5.6858000000000004
 20
-0.1906
 30
0.0
  0
SPLINE
  5
53
100
AcDbEntity
  8
Ebene 1
370
    40
 62
     0
100
AcDbSpline
210
0.0
220
0.0
230
1.0
 70
     0
 71
     3
 72
     8
 73
     4
 74
     0
 42
0.0000000001
 43
0.0000000001
 40
0.0
 40
0.0
 40
0.0
 40
0.0
 40
1.0
 40
1.0
 40
1.0
 40
1.0
 10
-8.5549999999999997
 20
-0.1906
 30
0.0
 10
-8.5549999999999997
 20
-0.1906
 30
0.0
 10
-5.6858000000000004
 20
-0.1906
 30
0.0
 10
-5.6858000000000004
 20
-0.1906
 30
0.0
  0
SPLINE
  5
54
100
AcDbEntity
  8
Ebene 1
370
    40
 62
     0
100
AcDbSpline
210
0.0
220
0.0
230
1.0
 70
     0
 71
     3
 72
     8
 73
     4
 74
     0
 42
0.0000000001
 43
0.0000000001
 40
0.0
 40
0.0
 40
0.0
 40
0.0
 40
1.0
 40
1.0
 40
1.0
 40
1.0
 10
-8.5549999999999997
 20
4.2507000000000001
 30
0.0
 10
-8.5549999999999997
 20
4.2507000000000001
 30
0.0
 10
-5.6858000000000004
 20
4.2507000000000001
 30
0.0
 10
-5.6858000000000004
 20
4.2507000000000001
 30
0.0
  0
SPLINE
  5
55
100
AcDbEntity
  8
Ebene 1
370
    40
 62
     0
100
AcDbSpline
210
0.0
220
0.0
230
1.0
 70
     0
 71
     3
 72
     8
 73
     4
 74
     0
 42
0.0000000001
 43
0.0000000001
 40
0.0
 40
0.0
 40
0.0
 40
0.0
 40
1.0
 40
1.0
 40
1.0
 40
1.0
 10
-8.5549999999999997
 20
4.2507000000000001
 30
0.0
 10
-8.5549999999999997
 20
4.2507000000000001
 30
0.0
 10
-8.5549999999999997
 20
1.3029000000000002
 30
0.0
 10
-8.5549999999999997
 20
1.3029000000000002
 30
0.0
  0
SPLINE
  5
56
100
AcDbEntity
  8
Ebene 1
370
    40
 62
     0
100
AcDbSpline
210
0.0
220
0.0
230
1.0
 70
     0
 71
     3
 72
     8
 73
     4
 74
     0
 42
0.0000000001
 43
0.0000000001
 40
0.0
 40
0.0
 40
0.0
 40
0.0
 40
1.0
 40
1.0
 40
1.0
 40
1.0
 10
-5.6858000000000004
 20
4.2507000000000001
 30
0.0
 10
-5.6858000000000004
 20
4.2507000000000001
 30
0.0
 10
-5.6858000000000004
 20
1.3029000000000002
 30
0.0
 10
-5.6858000000000004
 20
1.3029000000000002
 30
0.0
  0
SPLINE
  5
57
100
AcDbEntity
  8
Ebene 1
370
    40
 62
     0
100
AcDbSpline
210
0.0
220
0.0
230
1.0
 70
     0
 71
     3
 72
     8
 73
     4
 74
     0
 42
0.0000000001
 43
0.0000000001
 40
0.0
 40
0.0
 40
0.0
 40
0.0
 40
1.0
 40
1.0
 40
1.0
 40
1.0
 10
-8.5549999999999997
 20
1.3029000000000002
 30
0.0
 10
-8.5549999999999997
 20
1.3029000000000002
 30
0.0
 10
-5.6858000000000004
 20
1.3029000000000002
 30
0.0
 10
-5.6858000000000004
 20
1.3029000000000002
 30
0.0
  0
SPLINE
  5
58
100
AcDbEntity
  8
Ebene 1
370
    40
 62
     0
100
AcDbSpline
210
0.0
220
0.0
230
1.0
 70
     0
 71
     3
 72
     8
 73
     4
 74
     0
 42
0.0000000001
 43
0.0000000001
 40
0.0
 40
0.0
 40
0.0
 40
0.0
 40
1.0
 40
1.0
 40
1.0
 40
1.0
 10
-4.1726000000000001
 20
-3.1384000000000003
 30
0.0
 10
-4.1726000000000001
 20
-3.1384000000000003
 30
0.0
 10
-1.2248000000000001
 20
-3.1384000000000003
 30
0.0
 10
-1.2248000000000001
 20
-3.1384000000000003
 30
0.0
  0
SPLINE
  5
59
100
AcDbEntity
  8
Ebene 1
370
    40
 62
     0
100
AcDbSpline
210
0.0
220
0.0
230
1.0
 70
     0
 71
     3
 72
     8
 73
     4
 74
     0
 42
0.0000000001
 43
0.0000000001
 40
0.0
 40
0.0
 40
0.0
 40
0.0
 40
1.0
 40
1.0
 40
1.0
 40
1.0
 10
-4.1726000000000001
 20
-3.1384000000000003
 30
0.0
 10
-4.1726000000000001
 20
-3.1384000000000003
 30
0.0
 10
-4.1726000000000001
 20
-0.1906
 30
0.0
 10
-4.1726000000000001
 20
-0.1906
 30
0.0
  0
SPLINE
  5
5A
100
AcDbEntity
  8
Ebene 1
370
    40
 62
     0
100
AcDbSpline
210
0.0
220
0.0
230
1.0
 70
     0
 71
     3
 72
     8
 73
     4
 74
     0
 42
0.0000000001
 43
0.0000000001
 40
0.0
 40
0.0
 40
0.0
 40
0.0
 40
1.0
 40
1.0
 40
1.0
 40
1.0
 10
-1.2248000000000001
 20
-3.1384000000000003
 30
0.0
 10
-1.2248000000000001
 20
-3.1384000000000003
 30
0.0
 10
-1.2248000000000001
 20
-0.1906
 30
0.0
 10
-1.2248000000000001
 20
-0.1906
 30
0.0
  0
SPLINE
  5
5B
100
AcDbEntity
  8
Ebene 1
370
    40
 62
     0
100
AcDbSpline
210
0.0
220
0.0
230
1.0
 70
     0
 71
     3
 72
     8
 73
     4
 74
     0
 42
0.0000000001
 43
0.0000000001
 40
0.0
 40
0.0
 40
0.0
 40
0.0
 40
1.0
 40
1.0
 40
1.0
 40
1.0
 10
-8.5549999999999997
 20
5.7639000000000005
 30
0.0
 10
-8.5549999999999997
 20
5.7639000000000005
 30
0.0
 10
-5.6858000000000004
 20
5.7639000000000005
 30
0.0
 10
-5.6858000000000004
 20
5.7639000000000005
 30
0.0
  0
SPLINE
  5
5C
100
AcDbEntity
  8
Ebene 1
370
    40
 62
     0
100
AcDbSpline
210
0.0
220
0.0
230
1.0
 70
     0
 71
     3
 72
     8
 73
     4
 74
     0
 42
0.0000000001
 43
0.0000000001
 40
0.0
 40
0.0
 40
0.0
 40
0.0
 40
1.0
 40
1.0
 40
1.0
 40
1.0
 10
-4.1726000000000001
 20
8.7117000000000004
 30
0.0
 10
-4.1726000000000001
 20
8.7117000000000004
 30
0.0
 10
-1.2248000000000001
 20
8.7117000000000004
 30
0.0
 10
-1.2248000000000001
 20
8.7117000000000004
 30
0.0
  0
SPLINE
  5
5D
100
AcDbEntity
  8
Ebene 1
370
    40
 62
     0
100
AcDbSpline
210
0.0
220
0.0
230
1.0
 70
     0
 71
     3
 72
     8
 73
     4
 74
     0
 42
0.0000000001
 43
0.0000000001
 40
0.0
 40
0.0
 40
0.0
 40
0.0
 40
1.0
 40
1.0
 40
1.0
 40
1.0
 10
-4.1726000000000001
 20
8.7117000000000004
 30
0.0
 10
-4.1726000000000001
 20
8.7117000000000004
 30
0.0
 10
-4.1726000000000001
 20
5.7639000000000005
 30
0.0
 10
-4.1726000000000001
 20
5.7639000000000005
 30
0.0
  0
SPLINE
  5
5E
100
AcDbEntity
  8
Ebene 1
370
    40
 62
     0
100
AcDbSpline
210
0.0
220
0.0
230
1.0
 70
     0
 71
     3
 72
     8
 73
     4
 74
     0
 42
0.0000000001
 43
0.0000000001
 40
0.0
 40
0.0
 40
0.0
 40
0.0
 40
1.0
 40
1.0
 40
1.0
 40
1.0
 10
-1.2248000000000001
 20
8.7117000000000004
 30
0.0
 10
-1.2248000000000001
 20
8.7117000000000004
 30
0.0
 10
-1.2248000000000001
 20
5.7639000000000005
 30
0.0
 10
-1.2248000000000001
 20
5.7639000000000005
 30
0.0
  0
SPLINE
  5
5F
100
AcDbEntity
  8
Ebene 1
370
    40
 62
     0
100
AcDbSpline
210
0.0
220
0.0
230
1.0
 70
     0
 71
     3
 72
     8
 73
     4
 74
     0
 42
0.0000000001
 43
0.0000000001
 40
0.0
 40
0.0
 40
0.0
 40
0.0
 40
1.0
 40
1.0
 40
1.0
 40
1.0
 10
-4.1726000000000001
 20
5.7639000000000005
 30
0.0
 10
-4.1726000000000001
 20
5.7639000000000005
 30
0.0
 10
-1.2248000000000001
 20
5.7639000000000005
 30
0.0
 10
-1.2248000000000001
 20
5.7639000000000005
 30
0.0
  0
SPLINE
  5
60
100
AcDbEntity
  8
Ebene 1
370
    40
 62
     0
100
AcDbSpline
210
0.0
220
0.0
230
1.0
 70
     0
 71
     3
 72
     8
 73
     4
 74
     0
 42
0.0000000001
 43
0.0000000001
 40
0.0
 40
0.0
 40
0.0
 40
0.0
 40
1.0
 40
1.0
 40
1.0
 40
1.0
 10
13.651800000000001
 20
8.7117000000000004
 30
0.0
 10
13.651800000000001
 20
8.7117000000000004
 30
0.0
 10
16.521000000000001
 20
8.7117000000000004
 30
0.0
 10
16.521000000000001
 20
8.7117000000000004
 30
0.0
  0
SPLINE
  5
61
100
AcDbEntity
  8
Ebene 1
370
    40
 62
     0
100
AcDbSpline
210
0.0
220
0.0
230
1.0
 70
     0
 71
     3
 72
     8
 73
     4
 74
     0
 42
0.0000000001
 43
0.0000000001
 40
0.0
 40
0.0
 40
0.0
 40
0.0
 40
1.0
 40
1.0
 40
1.0
 40
1.0
 10
16.521000000000001
 20
5.7639000000000005
 30
0.0
 10
16.521000000000001
 20
5.7639000000000005
 30
0.0
 10
16.521000000000001
 20
8.7117000000000004
 30
0.0
 10
16.521000000000001
 20
8.7117000000000004
 30
0.0
  0
SPLINE
  5
62
100
AcDbEntity
  8
Ebene 1
370
    40
 62
     0
100
AcDbSpline
210
0.0
220
0.0
230
1.0
 70
     0
 71
     3
 72
     8
 73
     4
 74
     0
 42
0.0000000001
 43
0.0000000001
 40
0.0
 40
0.0
 40
0.0
 40
0.0
 40
1.0
 40
1.0
 40
1.0
 40
1.0
 10
13.651800000000001
 20
5.7639000000000005
 30
0.0
 10
13.651800000000001
 20
5.7639000000000005
 30
0.0
 10
13.651800000000001
 20
8.7117000000000004
 30
0.0
 10
13.651800000000001
 20
8.7117000000000004
 30
0.0
  0
SPLINE
  5
63
100
AcDbEntity
  8
Ebene 1
370
    40
 62
     0
100
AcDbSpline
210
0.0
220
0.0
230
1.0
 70
     0
 71
     3
 72
     8
 73
     4
 74
     0
 42
0.0000000001
 43
0.0000000001
 40
0.0
 40
0.0
 40
0.0
 40
0.0
 40
1.0
 40
1.0
 40
1.0
 40
1.0
 10
13.651800000000001
 20
5.7639000000000005
 30
0.0
 10
13.651800000000001
 20
5.7639000000000005
 30
0.0
 10
16.521000000000001
 20
5.7639000000000005
 30
0.0
 10
16.521000000000001
 20
5.7639000000000005
 30
0.0
  0
SPLINE
  5
64
100
AcDbEntity
  8
Ebene 1
370
    40
 62
     0
100
AcDbSpline
210
0.0
220
0.0
230
1.0
 70
     0
 71
     3
 72
     8
 73
     4
 74
     0
 42
0.0000000001
 43
0.0000000001
 40
0.0
 40
0.0
 40
0.0
 40
0.0
 40
1.0
 40
1.0
 40
1.0
 40
1.0
 10
9.1908000000000012
 20
8.7117000000000004
 30
0.0
 10
9.1908000000000012
 20
8.7117000000000004
 30
0.0
 10
12.1386
 20
8.7117000000000004
 30
0.0
 10
12.1386
 20
8.7117000000000004
 30
0.0
  0
SPLINE
  5
65
100
AcDbEntity
  8
Ebene 1
370
    40
 62
     0
100
AcDbSpline
210
0.0
220
0.0
230
1.0
 70
     0
 71
     3
 72
     8
 73
     4
 74
     0
 42
0.0000000001
 43
0.0000000001
 40
0.0
 40
0.0
 40
0.0
 40
0.0
 40
1.0
 40
1.0
 40
1.0
 40
1.0
 10
12.1386
 20
5.7639000000000005
 30
0.0
 10
12.1386
 20
5.7639000000000005
 30
0.0
 10
12.1386
 20
8.7117000000000004
 30
0.0
 10
12.1386
 20
8.7117000000000004
 30
0.0
  0
SPLINE
  5
66
100
AcDbEntity
  8
Ebene 1
370
    40
 62
     0
100
AcDbSpline
210
0.0
220
0.0
230
1.0
 70
     0
 71
     3
 72
     8
 73
     4
 74
     0
 42
0.0000000001
 43
0.0000000001
 40
0.0
 40
0.0
 40
0.0
 40
0.0
 40
1.0
 40
1.0
 40
1.0
 40
1.0
 10
9.1908000000000012
 20
5.7639000000000005
 30
0.0
 10
9.1908000000000012
 20
5.7639000000000005
 30
0.0
 10
9.1908000000000012
 20
8.7117000000000004
 30
0.0
 10
9.1908000000000012
 20
8.7117000000000004
 30
0.0
  0
SPLINE
  5
67
100
AcDbEntity
  8
Ebene 1
370
    40
 62
     0
100
AcDbSpline
210
0.0
220
0.0
230
1.0
 70
     0
 71
     3
 72
     8
 73
     4
 74
     0
 42
0.0000000001
 43
0.0000000001
 40
0.0
 40
0.0
 40
0.0
 40
0.0
 40
1.0
 40
1.0
 40
1.0
 40
1.0
 10
9.1908000000000012
 20
5.7639000000000005
 30
0.0
 10
9.1908000000000012
 20
5.7639000000000005
 30
0.0
 10
12.1386
 20
5.7639000000000005
 30
0.0
 10
12.1386
 20
5.7639000000000005
 30
0.0
  0
SPLINE
  5
68
100
AcDbEntity
  8
Ebene 1
370
    40
 62
     0
100
AcDbSpline
210
0.0
220
0.0
230
1.0
 70
     0
 71
     3
 72
     8
 73
     4
 74
     0
 42
0.0000000001
 43
0.0000000001
 40
0.0
 40
0.0
 40
0.0
 40
0.0
 40
1.0
 40
1.0
 40
1.0
 40
1.0
 10
4.7298
 20
8.7117000000000004
 30
0.0
 10
4.7298
 20
8.7117000000000004
 30
0.0
 10
7.6776
 20
8.7117000000000004
 30
0.0
 10
7.6776
 20
8.7117000000000004
 30
0.0
  0
SPLINE
  5
69
100
AcDbEntity
  8
Ebene 1
370
    40
 62
     0
100
AcDbSpline
210
0.0
220
0.0
230
1.0
 70
     0
 71
     3
 72
     8
 73
     4
 74
     0
 42
0.0000000001
 43
0.0000000001
 40
0.0
 40
0.0
 40
0.0
 40
0.0
 40
1.0
 40
1.0
 40
1.0
 40
1.0
 10
7.6776
 20
5.7639000000000005
 30
0.0
 10
7.6776
 20
5.7639000000000005
 30
0.0
 10
7.6776
 20
8.7117000000000004
 30
0.0
 10
7.6776
 20
8.7117000000000004
 30
0.0
  0
SPLINE
  5
6A
100
AcDbEntity
  8
Ebene 1
370
    40
 62
     0
100
AcDbSpline
210
0.0
220
0.0
230
1.0
 70
     0
 71
     3
 72
     8
 73
     4
 74
     0
 42
0.0000000001
 43
0.0000000001
 40
0.0
 40
0.0
 40
0.0
 40
0.0
 40
1.0
 40
1.0
 40
1.0
 40
1.0
 10
4.7298
 20
5.7639000000000005
 30
0.0
 10
4.7298
 20
5.7639000000000005
 30
0.0
 10
4.7298
 20
8.7117000000000004
 30
0.0
 10
4.7298
 20
8.7117000000000004
 30
0.0
  0
SPLINE
  5
6B
100
AcDbEntity
  8
Ebene 1
370
    40
 62
     0
100
AcDbSpline
210
0.0
220
0.0
230
1.0
 70
     0
 71
     3
 72
     8
 73
     4
 74
     0
 42
0.0000000001
 43
0.0000000001
 40
0.0
 40
0.0
 40
0.0
 40
0.0
 40
1.0
 40
1.0
 40
1.0
 40
1.0
 10
13.651800000000001
 20
10.2249
 30
0.0
 10
13.651800000000001
 20
10.2249
 30
0.0
 10
16.521000000000001
 20
10.2249
 30
0.0
 10
16.521000000000001
 20
10.2249
 30
0.0
  0
SPLINE
  5
6C
100
AcDbEntity
  8
Ebene 1
370
    40
 62
     0
100
AcDbSpline
210
0.0
220
0.0
230
1.0
 70
     0
 71
     3
 72
     8
 73
     4
 74
     0
 42
0.0000000001
 43
0.0000000001
 40
0.0
 40
0.0
 40
0.0
 40
0.0
 40
1.0
 40
1.0
 40
1.0
 40
1.0
 10
9.1908000000000012
 20
13.172700000000001
 30
0.0
 10
9.1908000000000012
 20
13.172700000000001
 30
0.0
 10
12.1386
 20
13.172700000000001
 30
0.0
 10
12.1386
 20
13.172700000000001
 30
0.0
  0
SPLINE
  5
6D
100
AcDbEntity
  8
Ebene 1
370
    40
 62
     0
100
AcDbSpline
210
0.0
220
0.0
230
1.0
 70
     0
 71
     3
 72
     8
 73
     4
 74
     0
 42
0.0000000001
 43
0.0000000001
 40
0.0
 40
0.0
 40
0.0
 40
0.0
 40
1.0
 40
1.0
 40
1.0
 40
1.0
 10
12.1386
 20
10.2249
 30
0.0
 10
12.1386
 20
10.2249
 30
0.0
 10
12.1386
 20
13.172700000000001
 30
0.0
 10
12.1386
 20
13.172700000000001
 30
0.0
  0
SPLINE
  5
6E
100
AcDbEntity
  8
Ebene 1
370
    40
 62
     0
100
AcDbSpline
210
0.0
220
0.0
230
1.0
 70
     0
 71
     3
 72
     8
 73
     4
 74
     0
 42
0.0000000001
 43
0.0000000001
 40
0.0
 40
0.0
 40
0.0
 40
0.0
 40
1.0
 40
1.0
 40
1.0
 40
1.0
 10
9.1908000000000012
 20
10.2249
 30
0.0
 10
9.1908000000000012
 20
10.2249
 30
0.0
 10
9.1908000000000012
 20
13.172700000000001
 30
0.0
 10
9.1908000000000012
 20
13.172700000000001
 30
0.0
  0
SPLINE
  5
6F
100
AcDbEntity
  8
Ebene 1
370
    40
 62
     0
100
AcDbSpline
210
0.0
220
0.0
230
1.0
 70
     0
 71
     3
 72
     8
 73
     4
 74
     0
 42
0.0000000001
 43
0.0000000001
 40
0.0
 40
0.0
 40
0.0
 40
0.0
 40
1.0
 40
1.0
 40
1.0
 40
1.0
 10
9.1908000000000012
 20
10.2249
 30
0.0
 10
9.1908000000000012
 20
10.2249
 30
0.0
 10
12.1386
 20
10.2249
 30
0.0
 10
12.1386
 20
10.2249
 30
0.0
  0
SPLINE
  5
70
100
AcDbEntity
  8
Ebene 1
370
    40
 62
     0
100
AcDbSpline
210
0.0
220
0.0
230
1.0
 70
     0
 71
     3
 72
     8
 73
     4
 74
     0
 42
0.0000000001
 43
0.0000000001
 40
0.0
 40
0.0
 40
0.0
 40
0.0
 40
1.0
 40
1.0
 40
1.0
 40
1.0
 10
4.7298
 20
13.172700000000001
 30
0.0
 10
4.7298
 20
13.172700000000001
 30
0.0
 10
7.6776
 20
13.172700000000001
 30
0.0
 10
7.6776
 20
13.172700000000001
 30
0.0
  0
SPLINE
  5
71
100
AcDbEntity
  8
Ebene 1
370
    40
 62
     0
100
AcDbSpline
210
0.0
220
0.0
230
1.0
 70
     0
 71
     3
 72
     8
 73
     4
 74
     0
 42
0.0000000001
 43
0.0000000001
 40
0.0
 40
0.0
 40
0.0
 40
0.0
 40
1.0
 40
1.0
 40
1.0
 40
1.0
 10
7.6776
 20
10.2249
 30
0.0
 10
7.6776
 20
10.2249
 30
0.0
 10
7.6776
 20
13.172700000000001
 30
0.0
 10
7.6776
 20
13.172700000000001
 30
0.0
  0
SPLINE
  5
72
100
AcDbEntity
  8
Ebene 1
370
    40
 62
     0
100
AcDbSpline
210
0.0
220
0.0
230
1.0
 70
     0
 71
     3
 72
     8
 73
     4
 74
     0
 42
0.0000000001
 43
0.0000000001
 40
0.0
 40
0.0
 40
0.0
 40
0.0
 40
1.0
 40
1.0
 40
1.0
 40
1.0
 10
4.7298
 20
10.2249
 30
0.0
 10
4.7298
 20
10.2249
 30
0.0
 10
4.7298
 20
13.172700000000001
 30
0.0
 10
4.7298
 20
13.172700000000001
 30
0.0
  0
SPLINE
  5
73
100
AcDbEntity
  8
Ebene 1
370
    40
 62
     0
100
AcDbSpline
210
0.0
220
0.0
230
1.0
 70
     0
 71
     3
 72
     8
 73
     4
 74
     0
 42
0.0000000001
 43
0.0000000001
 40
0.0
 40
0.0
 40
0.0
 40
0.0
 40
1.0
 40
1.0
 40
1.0
 40
1.0
 10
4.7298
 20
10.2249
 30
0.0
 10
4.7298
 20
10.2249
 30
0.0
 10
7.6776
 20
10.2249
 30
0.0
 10
7.6776
 20
10.2249
 30
0.0
  0
SPLINE
  5
74
100
AcDbEntity
  8
Ebene 1
370
    40
 62
     0
100
AcDbSpline
210
0.0
220
0.0
230
1.0
 70
     0
 71
     3
 72
     8
 73
     4
 74
     0
 42
0.0000000001
 43
0.0000000001
 40
0.0
 40
0.0
 40
0.0
 40
0.0
 40
1.0
 40
1.0
 40
1.0
 40
1.0
 10
0.2884
 20
13.172700000000001
 30
0.0
 10
0.2884
 20
13.172700000000001
 30
0.0
 10
3.2362000000000002
 20
13.172700000000001
 30
0.0
 10
3.2362000000000002
 20
13.172700000000001
 30
0.0
  0
SPLINE
  5
75
100
AcDbEntity
  8
Ebene 1
370
    40
 62
     0
100
AcDbSpline
210
0.0
220
0.0
230
1.0
 70
     0
 71
     3
 72
     8
 73
     4
 74
     0
 42
0.0000000001
 43
0.0000000001
 40
0.0
 40
0.0
 40
0.0
 40
0.0
 40
1.0
 40
1.0
 40
1.0
 40
1.0
 10
0.2884
 20
13.172700000000001
 30
0.0
 10
0.2884
 20
13.172700000000001
 30
0.0
 10
0.2884
 20
10.2249
 30
0.0
 10
0.2884
 20
10.2249
 30
0.0
  0
SPLINE
  5
76
100
AcDbEntity
  8
Ebene 1
370
    40
 62
     0
100
AcDbSpline
210
0.0
220
0.0
230
1.0
 70
     0
 71
     3
 72
     8
 73
     4
 74
     0
 42
0.0000000001
 43
0.0000000001
 40
0.0
 40
0.0
 40
0.0
 40
0.0
 40
1.0
 40
1.0
 40
1.0
 40
1.0
 10
3.2362000000000002
 20
13.172700000000001
 30
0.0
 10
3.2362000000000002
 20
13.172700000000001
 30
0.0
 10
3.2362000000000002
 20
10.2249
 30
0.0
 10
3.2362000000000002
 20
10.2249
 30
0.0
  0
SPLINE
  5
77
100
AcDbEntity
  8
Ebene 1
370
    40
 62
     0
100
AcDbSpline
210
0.0
220
0.0
230
1.0
 70
     0
 71
     3
 72
     8
 73
     4
 74
     0
 42
0.0000000001
 43
0.0000000001
 40
0.0
 40
0.0
 40
0.0
 40
0.0
 40
1.0
 40
1.0
 40
1.0
 40
1.0
 10
0.2884
 20
10.2249
 30
0.0
 10
0.2884
 20
10.2249
 30
0.0
 10
3.2362000000000002
 20
10.2249
 30
0.0
 10
3.2362000000000002
 20
10.2249
 30
0.0
  0
SPLINE
  5
78
100
AcDbEntity
  8
Ebene 1
370
    40
 62
     0
100
AcDbSpline
210
0.0
220
0.0
230
1.0
 70
     0
 71
     3
 72
     8
 73
     4
 74
     0
 42
0.0000000001
 43
0.0000000001
 40
0.0
 40
0.0
 40
0.0
 40
0.0
 40
1.0
 40
1.0
 40
1.0
 40
1.0
 10
-8.5549999999999997
 20
8.7117000000000004
 30
0.0
 10
-8.5549999999999997
 20
8.7117000000000004
 30
0.0
 10
-5.6858000000000004
 20
8.7117000000000004
 30
0.0
 10
-5.6858000000000004
 20
8.7117000000000004
 30
0.0
  0
SPLINE
  5
79
100
AcDbEntity
  8
Ebene 1
370
    40
 62
     0
100
AcDbSpline
210
0.0
220
0.0
230
1.0
 70
     0
 71
     3
 72
     8
 73
     4
 74
     0
 42
0.0000000001
 43
0.0000000001
 40
0.0
 40
0.0
 40
0.0
 40
0.0
 40
1.0
 40
1.0
 40
1.0
 40
1.0
 10
-8.5549999999999997
 20
8.7117000000000004
 30
0.0
 10
-8.5549999999999997
 20
8.7117000000000004
 30
0.0
 10
-8.5549999999999997
 20
5.7639000000000005
 30
0.0
 10
-8.5549999999999997
 20
5.7639000000000005
 30
0.0
  0
SPLINE
  5
7A
100
AcDbEntity
  8
Ebene 1
370
    40
 62
     0
100
AcDbSpline
210
0.0
220
0.0
230
1.0
 70
     0
 71
     3
 72
     8
 73
     4
 74
     0
 42
0.0000000001
 43
0.0000000001
 40
0.0
 40
0.0
 40
0.0
 40
0.0
 40
1.0
 40
1.0
 40
1.0
 40
1.0
 10
-5.6858000000000004
 20
8.7117000000000004
 30
0.0
 10
-5.6858000000000004
 20
8.7117000000000004
 30
0.0
 10
-5.6858000000000004
 20
5.7639000000000005
 30
0.0
 10
-5.6858000000000004
 20
5.7639000000000005
 30
0.0
  0
SPLINE
  5
7B
100
AcDbEntity
  8
Ebene 1
370
    40
 62
     0
100
AcDbSpline
210
0.0
220
0.0
230
1.0
 70
     0
 71
     3
 72
     8
 73
     4
 74
     0
 42
0.0000000001
 43
0.0000000001
 40
0.0
 40
0.0
 40
0.0
 40
0.0
 40
1.0
 40
1.0
 40
1.0
 40
1.0
 10
4.7298
 20
-4.6516000000000002
 30
0.0
 10
4.7298
 20
-4.6516000000000002
 30
0.0
 10
7.6776
 20
-4.6516000000000002
 30
0.0
 10
7.6776
 20
-4.6516000000000002
 30
0.0
  0
SPLINE
  5
7C
100
AcDbEntity
  8
Ebene 1
370
    40
 62
     0
100
AcDbSpline
210
0.0
220
0.0
230
1.0
 70
     0
 71
     3
 72
     8
 73
     4
 74
     0
 42
0.0000000001
 43
0.0000000001
 40
0.0
 40
0.0
 40
0.0
 40
0.0
 40
1.0
 40
1.0
 40
1.0
 40
1.0
 10
0.2884
 20
-7.5404
 30
0.0
 10
0.2884
 20
-7.5404
 30
0.0
 10
3.2362000000000002
 20
-7.5404
 30
0.0
 10
3.2362000000000002
 20
-7.5404
 30
0.0
  0
SPLINE
  5
7D
100
AcDbEntity
  8
Ebene 1
370
    40
 62
     0
100
AcDbSpline
210
0.0
220
0.0
230
1.0
 70
     0
 71
     3
 72
     8
 73
     4
 74
     0
 42
0.0000000001
 43
0.0000000001
 40
0.0
 40
0.0
 40
0.0
 40
0.0
 40
1.0
 40
1.0
 40
1.0
 40
1.0
 10
0.2884
 20
-7.5404
 30
0.0
 10
0.2884
 20
-7.5404
 30
0.0
 10
0.2884
 20
-4.6516000000000002
 30
0.0
 10
0.2884
 20
-4.6516000000000002
 30
0.0
  0
SPLINE
  5
7E
100
AcDbEntity
  8
Ebene 1
370
    40
 62
     0
100
AcDbSpline
210
0.0
220
0.0
230
1.0
 70
     0
 71
     3
 72
     8
 73
     4
 74
     0
 42
0.0000000001
 43
0.0000000001
 40
0.0
 40
0.0
 40
0.0
 40
0.0
 40
1.0
 40
1.0
 40
1.0
 40
1.0
 10
3.2362000000000002
 20
-7.5404
 30
0.0
 10
3.2362000000000002
 20
-7.5404
 30
0.0
 10
3.2362000000000002
 20
-4.6516000000000002
 30
0.0
 10
3.2362000000000002
 20
-4.6516000000000002
 30
0.0
  0
SPLINE
  5
7F
100
AcDbEntity
  8
Ebene 1
370
    40
 62
     0
100
AcDbSpline
210
0.0
220
0.0
230
1.0
 70
     0
 71
     3
 72
     8
 73
     4
 74
     0
 42
0.0000000001
 43
0.0000000001
 40
0.0
 40
0.0
 40
0.0
 40
0.0
 40
1.0
 40
1.0
 40
1.0
 40
1.0
 10
0.2884
 20
-4.6516000000000002
 30
0.0
 10
0.2884
 20
-4.6516000000000002
 30
0.0
 10
3.2362000000000002
 20
-4.6516000000000002
 30
0.0
 10
3.2362000000000002
 20
-4.6516000000000002
 30
0.0
  0
SPLINE
  5
80
100
AcDbEntity
  8
Ebene 1
370
    40
 62
     0
100
AcDbSpline
210
0.0
220
0.0
230
1.0
 70
     0
 71
     3
 72
     8
 73
     4
 74
     0
 42
0.0000000001
 43
0.0000000001
 40
0.0
 40
0.0
 40
0.0
 40
0.0
 40
1.0
 40
1.0
 40
1.0
 40
1.0
 10
-8.5549999999999997
 20
13.172700000000001
 30
0.0
 10
-8.5549999999999997
 20
13.172700000000001
 30
0.0
 10
-5.6858000000000004
 20
13.172700000000001
 30
0.0
 10
-5.6858000000000004
 20
13.172700000000001
 30
0.0
  0
SPLINE
  5
81
100
AcDbEntity
  8
Ebene 1
370
    40
 62
     0
100
AcDbSpline
210
0.0
220
0.0
230
1.0
 70
     0
 71
     3
 72
     8
 73
     4
 74
     0
 42
0.0000000001
 43
0.0000000001
 40
0.0
 40
0.0
 40
0.0
 40
0.0
 40
1.0
 40
1.0
 40
1.0
 40
1.0
 10
-8.5549999999999997
 20
13.172700000000001
 30
0.0
 10
-8.5549999999999997
 20
13.172700000000001
 30
0.0
 10
-8.5549999999999997
 20
10.2249
 30
0.0
 10
-8.5549999999999997
 20
10.2249
 30
0.0
  0
SPLINE
  5
82
100
AcDbEntity
  8
Ebene 1
370
    40
 62
     0
100
AcDbSpline
210
0.0
220
0.0
230
1.0
 70
     0
 71
     3
 72
     8
 73
     4
 74
     0
 42
0.0000000001
 43
0.0000000001
 40
0.0
 40
0.0
 40
0.0
 40
0.0
 40
1.0
 40
1.0
 40
1.0
 40
1.0
 10
-5.6858000000000004
 20
13.172700000000001
 30
0.0
 10
-5.6858000000000004
 20
13.172700000000001
 30
0.0
 10
-5.6858000000000004
 20
10.2249
 30
0.0
 10
-5.6858000000000004
 20
10.2249
 30
0.0
  0
SPLINE
  5
83
100
AcDbEntity
  8
Ebene 1
370
    40
 62
     0
100
AcDbSpline
210
0.0
220
0.0
230
1.0
 70
     0
 71
     3
 72
     8
 73
     4
 74
     0
 42
0.0000000001
 43
0.0000000001
 40
0.0
 40
0.0
 40
0.0
 40
0.0
 40
1.0
 40
1.0
 40
1.0
 40
1.0
 10
-8.5549999999999997
 20
10.2249
 30
0.0
 10
-8.5549999999999997
 20
10.2249
 30
0.0
 10
-5.6858000000000004
 20
10.2249
 30
0.0
 10
-5.6858000000000004
 20
10.2249
 30
0.0
  0
SPLINE
  5
84
100
AcDbEntity
  8
Ebene 1
370
    40
 62
     0
100
AcDbSpline
210
0.0
220
0.0
230
1.0
 70
     0
 71
     3
 72
     8
 73
     4
 74
     0
 42
0.0000000001
 43
0.0000000001
 40
0.0
 40
0.0
 40
0.0
 40
0.0
 40
1.0
 40
1.0
 40
1.0
 40
1.0
 10
-4.1726000000000001
 20
13.172700000000001
 30
0.0
 10
-4.1726000000000001
 20
13.172700000000001
 30
0.0
 10
-1.2248000000000001
 20
13.172700000000001
 30
0.0
 10
-1.2248000000000001
 20
13.172700000000001
 30
0.0
  0
SPLINE
  5
85
100
AcDbEntity
  8
Ebene 1
370
    40
 62
     0
100
AcDbSpline
210
0.0
220
0.0
230
1.0
 70
     0
 71
     3
 72
     8
 73
     4
 74
     0
 42
0.0000000001
 43
0.0000000001
 40
0.0
 40
0.0
 40
0.0
 40
0.0
 40
1.0
 40
1.0
 40
1.0
 40
1.0
 10
-4.1726000000000001
 20
13.172700000000001
 30
0.0
 10
-4.1726000000000001
 20
13.172700000000001
 30
0.0
 10
-4.1726000000000001
 20
10.2249
 30
0.0
 10
-4.1726000000000001
 20
10.2249
 30
0.0
  0
SPLINE
  5
86
100
AcDbEntity
  8
Ebene 1
370
    40
 62
     0
100
AcDbSpline
210
0.0
220
0.0
230
1.0
 70
     0
 71
     3
 72
     8
 73
     4
 74
     0
 42
0.0000000001
 43
0.0000000001
 40
0.0
 40
0.0
 40
0.0
 40
0.0
 40
1.0
 40
1.0
 40
1.0
 40
1.0
 10
-1.2248000000000001
 20
13.172700000000001
 30
0.0
 10
-1.2248000000000001
 20
13.172700000000001
 30
0.0
 10
-1.2248000000000001
 20
10.2249
 30
0.0
 10
-1.2248000000000001
 20
10.2249
 30
0.0
  0
SPLINE
  5
87
100
AcDbEntity
  8
Ebene 1
370
    40
 62
     0
100
AcDbSpline
210
0.0
220
0.0
230
1.0
 70
     0
 71
     3
 72
     8
 73
     4
 74
     0
 42
0.0000000001
 43
0.0000000001
 40
0.0
 40
0.0
 40
0.0
 40
0.0
 40
1.0
 40
1.0
 40
1.0
 40
1.0
 10
-4.1726000000000001
 20
10.2249
 30
0.0
 10
-4.1726000000000001
 20
10.2249
 30
0.0
 10
-1.2248000000000001
 20
10.2249
 30
0.0
 10
-1.2248000000000001
 20
10.2249
 30
0.0
  0
SPLINE
  5
88
100
AcDbEntity
  8
Ebene 1
370
    40
 62
     0
100
AcDbSpline
210
0.0
220
0.0
230
1.0
 70
     0
 71
     3
 72
     8
 73
     4
 74
     0
 42
0.0000000001
 43
0.0000000001
 40
0.0
 40
0.0
 40
0.0
 40
0.0
 40
1.0
 40
1.0
 40
1.0
 40
1.0
 10
13.651800000000001
 20
13.172700000000001
 30
0.0
 10
13.651800000000001
 20
13.172700000000001
 30
0.0
 10
16.521000000000001
 20
13.172700000000001
 30
0.0
 10
16.521000000000001
 20
13.172700000000001
 30
0.0
  0
SPLINE
  5
89
100
AcDbEntity
  8
Ebene 1
370
    40
 62
     0
100
AcDbSpline
210
0.0
220
0.0
230
1.0
 70
     0
 71
     3
 72
     8
 73
     4
 74
     0
 42
0.0000000001
 43
0.0000000001
 40
0.0
 40
0.0
 40
0.0
 40
0.0
 40
1.0
 40
1.0
 40
1.0
 40
1.0
 10
16.521000000000001
 20
10.2249
 30
0.0
 10
16.521000000000001
 20
10.2249
 30
0.0
 10
16.521000000000001
 20
13.172700000000001
 30
0.0
 10
16.521000000000001
 20
13.172700000000001
 30
0.0
  0
SPLINE
  5
8A
100
AcDbEntity
  8
Ebene 1
370
    40
 62
     0
100
AcDbSpline
210
0.0
220
0.0
230
1.0
 70
     0
 71
     3
 72
     8
 73
     4
 74
     0
 42
0.0000000001
 43
0.0000000001
 40
0.0
 40
0.0
 40
0.0
 40
0.0
 40
1.0
 40
1.0
 40
1.0
 40
1.0
 10
13.651800000000001
 20
10.2249
 30
0.0
 10
13.651800000000001
 20
10.2249
 30
0.0
 10
13.651800000000001
 20
13.172700000000001
 30
0.0
 10
13.651800000000001
 20
13.172700000000001
 30
0.0
  0
SPLINE
  5
8B
100
AcDbEntity
  8
Ebene 1
370
    40
 62
     0
100
AcDbSpline
210
0.0
220
0.0
230
1.0
 70
     0
 71
     3
 72
     8
 73
     4
 74
     0
 42
0.0000000001
 43
0.0000000001
 40
0.0
 40
0.0
 40
0.0
 40
0.0
 40
1.0
 40
1.0
 40
1.0
 40
1.0
 10
-8.5549999999999997
 20
-4.6516000000000002
 30
0.0
 10
-8.5549999999999997
 20
-4.6516000000000002
 30
0.0
 10
-5.6858000000000004
 20
-4.6516000000000002
 30
0.0
 10
-5.6858000000000004
 20
-4.6516000000000002
 30
0.0
  0
SPLINE
  5
8C
100
AcDbEntity
  8
Ebene 1
370
    40
 62
     0
100
AcDbSpline
210
0.0
220
0.0
230
1.0
 70
     0
 71
     3
 72
     8
 73
     4
 74
     0
 42
0.0000000001
 43
0.0000000001
 40
0.0
 40
0.0
 40
0.0
 40
0.0
 40
1.0
 40
1.0
 40
1.0
 40
1.0
 10
-4.1726000000000001
 20
-7.5404
 30
0.0
 10
-4.1726000000000001
 20
-7.5404
 30
0.0
 10
-1.2248000000000001
 20
-7.5404
 30
0.0
 10
-1.2248000000000001
 20
-7.5404
 30
0.0
  0
SPLINE
  5
8D
100
AcDbEntity
  8
Ebene 1
370
    40
 62
     0
100
AcDbSpline
210
0.0
220
0.0
230
1.0
 70
     0
 71
     3
 72
     8
 73
     4
 74
     0
 42
0.0000000001
 43
0.0000000001
 40
0.0
 40
0.0
 40
0.0
 40
0.0
 40
1.0
 40
1.0
 40
1.0
 40
1.0
 10
-4.1726000000000001
 20
-7.5404
 30
0.0
 10
-4.1726000000000001
 20
-7.5404
 30
0.0
 10
-4.1726000000000001
 20
-4.6516000000000002
 30
0.0
 10
-4.1726000000000001
 20
-4.6516000000000002
 30
0.0
  0
SPLINE
  5
8E
100
AcDbEntity
  8
Ebene 1
370
    40
 62
     0
100
AcDbSpline
210
0.0
220
0.0
230
1.0
 70
     0
 71
     3
 72
     8
 73
     4
 74
     0
 42
0.0000000001
 43
0.0000000001
 40
0.0
 40
0.0
 40
0.0
 40
0.0
 40
1.0
 40
1.0
 40
1.0
 40
1.0
 10
-1.2248000000000001
 20
-7.5404
 30
0.0
 10
-1.2248000000000001
 20
-7.5404
 30
0.0
 10
-1.2248000000000001
 20
-4.6516000000000002
 30
0.0
 10
-1.2248000000000001
 20
-4.6516000000000002
 30
0.0
  0
SPLINE
  5
8F
100
AcDbEntity
  8
Ebene 1
370
    40
 62
     0
100
AcDbSpline
210
0.0
220
0.0
230
1.0
 70
     0
 71
     3
 72
     8
 73
     4
 74
     0
 42
0.0000000001
 43
0.0000000001
 40
0.0
 40
0.0
 40
0.0
 40
0.0
 40
1.0
 40
1.0
 40
1.0
 40
1.0
 10
-4.1726000000000001
 20
-4.6516000000000002
 30
0.0
 10
-4.1726000000000001
 20
-4.6516000000000002
 30
0.0
 10
-1.2248000000000001
 20
-4.6516000000000002
 30
0.0
 10
-1.2248000000000001
 20
-4.6516000000000002
 30
0.0
  0
SPLINE
  5
90
100
AcDbEntity
  8
Ebene 1
370
    40
 62
     0
100
AcDbSpline
210
0.0
220
0.0
230
1.0
 70
     0
 71
     3
 72
     8
 73
     4
 74
     0
 42
0.0000000001
 43
0.0000000001
 40
0.0
 40
0.0
 40
0.0
 40
0.0
 40
1.0
 40
1.0
 40
1.0
 40
1.0
 10
13.651800000000001
 20
-7.5404
 30
0.0
 10
13.651800000000001
 20
-7.5404
 30
0.0
 10
16.521000000000001
 20
-7.5404
 30
0.0
 10
16.521000000000001
 20
-7.5404
 30
0.0
  0
SPLINE
  5
91
100
AcDbEntity
  8
Ebene 1
370
    40
 62
     0
100
AcDbSpline
210
0.0
220
0.0
230
1.0
 70
     0
 71
     3
 72
     8
 73
     4
 74
     0
 42
0.0000000001
 43
0.0000000001
 40
0.0
 40
0.0
 40
0.0
 40
0.0
 40
1.0
 40
1.0
 40
1.0
 40
1.0
 10
16.521000000000001
 20
-4.6516000000000002
 30
0.0
 10
16.521000000000001
 20
-4.6516000000000002
 30
0.0
 10
16.521000000000001
 20
-7.5404
 30
0.0
 10
16.521000000000001
 20
-7.5404
 30
0.0
  0
SPLINE
  5
92
100
AcDbEntity
  8
Ebene 1
370
    40
 62
     0
100
AcDbSpline
210
0.0
220
0.0
230
1.0
 70
     0
 71
     3
 72
     8
 73
     4
 74
     0
 42
0.0000000001
 43
0.0000000001
 40
0.0
 40
0.0
 40
0.0
 40
0.0
 40
1.0
 40
1.0
 40
1.0
 40
1.0
 10
13.651800000000001
 20
-4.6516000000000002
 30
0.0
 10
13.651800000000001
 20
-4.6516000000000002
 30
0.0
 10
13.651800000000001
 20
-7.5404
 30
0.0
 10
13.651800000000001
 20
-7.5404
 30
0.0
  0
SPLINE
  5
93
100
AcDbEntity
  8
Ebene 1
370
    40
 62
     0
100
AcDbSpline
210
0.0
220
0.0
230
1.0
 70
     0
 71
     3
 72
     8
 73
     4
 74
     0
 42
0.0000000001
 43
0.0000000001
 40
0.0
 40
0.0
 40
0.0
 40
0.0
 40
1.0
 40
1.0
 40
1.0
 40
1.0
 10
13.651800000000001
 20
-4.6516000000000002
 30
0.0
 10
13.651800000000001
 20
-4.6516000000000002
 30
0.0
 10
16.521000000000001
 20
-4.6516000000000002
 30
0.0
 10
16.521000000000001
 20
-4.6516000000000002
 30
0.0
  0
SPLINE
  5
94
100
AcDbEntity
  8
Ebene 1
370
    40
 62
     0
100
AcDbSpline
210
0.0
220
0.0
230
1.0
 70
     0
 71
     3
 72
     8
 73
     4
 74
     0
 42
0.0000000001
 43
0.0000000001
 40
0.0
 40
0.0
 40
0.0
 40
0.0
 40
1.0
 40
1.0
 40
1.0
 40
1.0
 10
9.1908000000000012
 20
-7.5404
 30
0.0
 10
9.1908000000000012
 20
-7.5404
 30
0.0
 10
12.1386
 20
-7.5404
 30
0.0
 10
12.1386
 20
-7.5404
 30
0.0
  0
SPLINE
  5
95
100
AcDbEntity
  8
Ebene 1
370
    40
 62
     0
100
AcDbSpline
210
0.0
220
0.0
230
1.0
 70
     0
 71
     3
 72
     8
 73
     4
 74
     0
 42
0.0000000001
 43
0.0000000001
 40
0.0
 40
0.0
 40
0.0
 40
0.0
 40
1.0
 40
1.0
 40
1.0
 40
1.0
 10
12.1386
 20
-4.6516000000000002
 30
0.0
 10
12.1386
 20
-4.6516000000000002
 30
0.0
 10
12.1386
 20
-7.5404
 30
0.0
 10
12.1386
 20
-7.5404
 30
0.0
  0
SPLINE
  5
96
100
AcDbEntity
  8
Ebene 1
370
    40
 62
     0
100
AcDbSpline
210
0.0
220
0.0
230
1.0
 70
     0
 71
     3
 72
     8
 73
     4
 74
     0
 42
0.0000000001
 43
0.0000000001
 40
0.0
 40
0.0
 40
0.0
 40
0.0
 40
1.0
 40
1.0
 40
1.0
 40
1.0
 10
9.1908000000000012
 20
-4.6516000000000002
 30
0.0
 10
9.1908000000000012
 20
-4.6516000000000002
 30
0.0
 10
9.1908000000000012
 20
-7.5404
 30
0.0
 10
9.1908000000000012
 20
-7.5404
 30
0.0
  0
SPLINE
  5
97
100
AcDbEntity
  8
Ebene 1
370
    40
 62
     0
100
AcDbSpline
210
0.0
220
0.0
230
1.0
 70
     0
 71
     3
 72
     8
 73
     4
 74
     0
 42
0.0000000001
 43
0.0000000001
 40
0.0
 40
0.0
 40
0.0
 40
0.0
 40
1.0
 40
1.0
 40
1.0
 40
1.0
 10
9.1908000000000012
 20
-4.6516000000000002
 30
0.0
 10
9.1908000000000012
 20
-4.6516000000000002
 30
0.0
 10
12.1386
 20
-4.6516000000000002
 30
0.0
 10
12.1386
 20
-4.6516000000000002
 30
0.0
  0
SPLINE
  5
98
100
AcDbEntity
  8
Ebene 1
370
    40
 62
     0
100
AcDbSpline
210
0.0
220
0.0
230
1.0
 70
     0
 71
     3
 72
     8
 73
     4
 74
     0
 42
0.0000000001
 43
0.0000000001
 40
0.0
 40
0.0
 40
0.0
 40
0.0
 40
1.0
 40
1.0
 40
1.0
 40
1.0
 10
4.7298
 20
-7.5404
 30
0.0
 10
4.7298
 20
-7.5404
 30
0.0
 10
7.6776
 20
-7.5404
 30
0.0
 10
7.6776
 20
-7.5404
 30
0.0
  0
SPLINE
  5
99
100
AcDbEntity
  8
Ebene 1
370
    40
 62
     0
100
AcDbSpline
210
0.0
220
0.0
230
1.0
 70
     0
 71
     3
 72
     8
 73
     4
 74
     0
 42
0.0000000001
 43
0.0000000001
 40
0.0
 40
0.0
 40
0.0
 40
0.0
 40
1.0
 40
1.0
 40
1.0
 40
1.0
 10
7.6776
 20
-4.6516000000000002
 30
0.0
 10
7.6776
 20
-4.6516000000000002
 30
0.0
 10
7.6776
 20
-7.5404
 30
0.0
 10
7.6776
 20
-7.5404
 30
0.0
  0
SPLINE
  5
9A
100
AcDbEntity
  8
Ebene 1
370
    40
 62
     0
100
AcDbSpline
210
0.0
220
0.0
230
1.0
 70
     0
 71
     3
 72
     8
 73
     4
 74
     0
 42
0.0000000001
 43
0.0000000001
 40
0.0
 40
0.0
 40
0.0
 40
0.0
 40
1.0
 40
1.0
 40
1.0
 40
1.0
 10
4.7298
 20
-4.6516000000000002
 30
0.0
 10
4.7298
 20
-4.6516000000000002
 30
0.0
 10
4.7298
 20
-7.5404
 30
0.0
 10
4.7298
 20
-7.5404
 30
0.0
  0
SPLINE
  5
9B
100
AcDbEntity
  8
Ebene 1
370
    40
 62
     0
100
AcDbSpline
210
0.0
220
0.0
230
1.0
 70
     0
 71
     3
 72
     8
 73
     4
 74
     0
 42
0.0000000001
 43
0.0000000001
 40
0.0
 40
0.0
 40
0.0
 40
0.0
 40
1.0
 40
1.0
 40
1.0
 40
1.0
 10
13.651800000000001
 20
-9.1126000000000005
 30
0.0
 10
13.651800000000001
 20
-9.1126000000000005
 30
0.0
 10
16.521000000000001
 20
-9.1126000000000005
 30
0.0
 10
16.521000000000001
 20
-9.1126000000000005
 30
0.0
  0
SPLINE
  5
9C
100
AcDbEntity
  8
Ebene 1
370
    40
 62
     0
100
AcDbSpline
210
0.0
220
0.0
230
1.0
 70
     0
 71
     3
 72
     8
 73
     4
 74
     0
 42
0.0000000001
 43
0.0000000001
 40
0.0
 40
0.0
 40
0.0
 40
0.0
 40
1.0
 40
1.0
 40
1.0
 40
1.0
 10
9.1908000000000012
 20
-11.9818
 30
0.0
 10
9.1908000000000012
 20
-11.9818
 30
0.0
 10
12.1386
 20
-11.9818
 30
0.0
 10
12.1386
 20
-11.9818
 30
0.0
  0
SPLINE
  5
9D
100
AcDbEntity
  8
Ebene 1
370
    40
 62
     0
100
AcDbSpline
210
0.0
220
0.0
230
1.0
 70
     0
 71
     3
 72
     8
 73
     4
 74
     0
 42
0.0000000001
 43
0.0000000001
 40
0.0
 40
0.0
 40
0.0
 40
0.0
 40
1.0
 40
1.0
 40
1.0
 40
1.0
 10
12.1386
 20
-9.1126000000000005
 30
0.0
 10
12.1386
 20
-9.1126000000000005
 30
0.0
 10
12.1386
 20
-11.9818
 30
0.0
 10
12.1386
 20
-11.9818
 30
0.0
  0
SPLINE
  5
9E
100
AcDbEntity
  8
Ebene 1
370
    40
 62
     0
100
AcDbSpline
210
0.0
220
0.0
230
1.0
 70
     0
 71
     3
 72
     8
 73
     4
 74
     0
 42
0.0000000001
 43
0.0000000001
 40
0.0
 40
0.0
 40
0.0
 40
0.0
 40
1.0
 40
1.0
 40
1.0
 40
1.0
 10
9.1908000000000012
 20
-9.1126000000000005
 30
0.0
 10
9.1908000000000012
 20
-9.1126000000000005
 30
0.0
 10
9.1908000000000012
 20
-11.9818
 30
0.0
 10
9.1908000000000012
 20
-11.9818
 30
0.0
  0
SPLINE
  5
9F
100
AcDbEntity
  8
Ebene 1
370
    40
 62
     0
100
AcDbSpline
210
0.0
220
0.0
230
1.0
 70
     0
 71
     3
 72
     8
 73
     4
 74
     0
 42
0.0000000001
 43
0.0000000001
 40
0.0
 40
0.0
 40
0.0
 40
0.0
 40
1.0
 40
1.0
 40
1.0
 40
1.0
 10
9.1908000000000012
 20
-9.1126000000000005
 30
0.0
 10
9.1908000000000012
 20
-9.1126000000000005
 30
0.0
 10
12.1386
 20
-9.1126000000000005
 30
0.0
 10
12.1386
 20
-9.1126000000000005
 30
0.0
  0
SPLINE
  5
A0
100
AcDbEntity
  8
Ebene 1
370
    40
 62
     0
100
AcDbSpline
210
0.0
220
0.0
230
1.0
 70
     0
 71
     3
 72
     8
 73
     4
 74
     0
 42
0.0000000001
 43
0.0000000001
 40
0.0
 40
0.0
 40
0.0
 40
0.0
 40
1.0
 40
1.0
 40
1.0
 40
1.0
 10
4.7298
 20
-11.9818
 30
0.0
 10
4.7298
 20
-11.9818
 30
0.0
 10
7.6776
 20
-11.9818
 30
0.0
 10
7.6776
 20
-11.9818
 30
0.0
  0
SPLINE
  5
A1
100
AcDbEntity
  8
Ebene 1
370
    40
 62
     0
100
AcDbSpline
210
0.0
220
0.0
230
1.0
 70
     0
 71
     3
 72
     8
 73
     4
 74
     0
 42
0.0000000001
 43
0.0000000001
 40
0.0
 40
0.0
 40
0.0
 40
0.0
 40
1.0
 40
1.0
 40
1.0
 40
1.0
 10
7.6776
 20
-9.1126000000000005
 30
0.0
 10
7.6776
 20
-9.1126000000000005
 30
0.0
 10
7.6776
 20
-11.9818
 30
0.0
 10
7.6776
 20
-11.9818
 30
0.0
  0
SPLINE
  5
A2
100
AcDbEntity
  8
Ebene 1
370
    40
 62
     0
100
AcDbSpline
210
0.0
220
0.0
230
1.0
 70
     0
 71
     3
 72
     8
 73
     4
 74
     0
 42
0.0000000001
 43
0.0000000001
 40
0.0
 40
0.0
 40
0.0
 40
0.0
 40
1.0
 40
1.0
 40
1.0
 40
1.0
 10
4.7298
 20
-9.1126000000000005
 30
0.0
 10
4.7298
 20
-9.1126000000000005
 30
0.0
 10
4.7298
 20
-11.9818
 30
0.0
 10
4.7298
 20
-11.9818
 30
0.0
  0
SPLINE
  5
A3
100
AcDbEntity
  8
Ebene 1
370
    40
 62
     0
100
AcDbSpline
210
0.0
220
0.0
230
1.0
 70
     0
 71
     3
 72
     8
 73
     4
 74
     0
 42
0.0000000001
 43
0.0000000001
 40
0.0
 40
0.0
 40
0.0
 40
0.0
 40
1.0
 40
1.0
 40
1.0
 40
1.0
 10
4.7298
 20
-9.1126000000000005
 30
0.0
 10
4.7298
 20
-9.1126000000000005
 30
0.0
 10
7.6776
 20
-9.1126000000000005
 30
0.0
 10
7.6776
 20
-9.1126000000000005
 30
0.0
  0
SPLINE
  5
A4
100
AcDbEntity
  8
Ebene 1
370
    40
 62
     0
100
AcDbSpline
210
0.0
220
0.0
230
1.0
 70
     0
 71
     3
 72
     8
 73
     4
 74
     0
 42
0.0000000001
 43
0.0000000001
 40
0.0
 40
0.0
 40
0.0
 40
0.0
 40
1.0
 40
1.0
 40
1.0
 40
1.0
 10
0.2884
 20
-11.9818
 30
0.0
 10
0.2884
 20
-11.9818
 30
0.0
 10
3.2362000000000002
 20
-11.9818
 30
0.0
 10
3.2362000000000002
 20
-11.9818
 30
0.0
  0
SPLINE
  5
A5
100
AcDbEntity
  8
Ebene 1
370
    40
 62
     0
100
AcDbSpline
210
0.0
220
0.0
230
1.0
 70
     0
 71
     3
 72
     8
 73
     4
 74
     0
 42
0.0000000001
 43
0.0000000001
 40
0.0
 40
0.0
 40
0.0
 40
0.0
 40
1.0
 40
1.0
 40
1.0
 40
1.0
 10
0.2884
 20
-11.9818
 30
0.0
 10
0.2884
 20
-11.9818
 30
0.0
 10
0.2884
 20
-9.1126000000000005
 30
0.0
 10
0.2884
 20
-9.1126000000000005
 30
0.0
  0
SPLINE
  5
A6
100
AcDbEntity
  8
Ebene 1
370
    40
 62
     0
100
AcDbSpline
210
0.0
220
0.0
230
1.0
 70
     0
 71
     3
 72
     8
 73
     4
 74
     0
 42
0.0000000001
 43
0.0000000001
 40
0.0
 40
0.0
 40
0.0
 40
0.0
 40
1.0
 40
1.0
 40
1.0
 40
1.0
 10
3.2362000000000002
 20
-11.9818
 30
0.0
 10
3.2362000000000002
 20
-11.9818
 30
0.0
 10
3.2362000000000002
 20
-9.1126000000000005
 30
0.0
 10
3.2362000000000002
 20
-9.1126000000000005
 30
0.0
  0
SPLINE
  5
A7
100
AcDbEntity
  8
Ebene 1
370
    40
 62
     0
100
AcDbSpline
210
0.0
220
0.0
230
1.0
 70
     0
 71
     3
 72
     8
 73
     4
 74
     0
 42
0.0000000001
 43
0.0000000001
 40
0.0
 40
0.0
 40
0.0
 40
0.0
 40
1.0
 40
1.0
 40
1.0
 40
1.0
 10
0.2884
 20
-9.1126000000000005
 30
0.0
 10
0.2884
 20
-9.1126000000000005
 30
0.0
 10
3.2362000000000002
 20
-9.1126000000000005
 30
0.0
 10
3.2362000000000002
 20
-9.1126000000000005
 30
0.0
  0
SPLINE
  5
A8
100
AcDbEntity
  8
Ebene 1
370
    40
 62
     0
100
AcDbSpline
210
0.0
220
0.0
230
1.0
 70
     0
 71
     3
 72
     8
 73
     4
 74
     0
 42
0.0000000001
 43
0.0000000001
 40
0.0
 40
0.0
 40
0.0
 40
0.0
 40
1.0
 40
1.0
 40
1.0
 40
1.0
 10
-8.5549999999999997
 20
-7.5404
 30
0.0
 10
-8.5549999999999997
 20
-7.5404
 30
0.0
 10
-5.6858000000000004
 20
-7.5404
 30
0.0
 10
-5.6858000000000004
 20
-7.5404
 30
0.0
  0
SPLINE
  5
A9
100
AcDbEntity
  8
Ebene 1
370
    40
 62
     0
100
AcDbSpline
210
0.0
220
0.0
230
1.0
 70
     0
 71
     3
 72
     8
 73
     4
 74
     0
 42
0.0000000001
 43
0.0000000001
 40
0.0
 40
0.0
 40
0.0
 40
0.0
 40
1.0
 40
1.0
 40
1.0
 40
1.0
 10
-8.5549999999999997
 20
-7.5404
 30
0.0
 10
-8.5549999999999997
 20
-7.5404
 30
0.0
 10
-8.5549999999999997
 20
-4.6516000000000002
 30
0.0
 10
-8.5549999999999997
 20
-4.6516000000000002
 30
0.0
  0
SPLINE
  5
AA
100
AcDbEntity
  8
Ebene 1
370
    40
 62
     0
100
AcDbSpline
210
0.0
220
0.0
230
1.0
 70
     0
 71
     3
 72
     8
 73
     4
 74
     0
 42
0.0000000001
 43
0.0000000001
 40
0.0
 40
0.0
 40
0.0
 40
0.0
 40
1.0
 40
1.0
 40
1.0
 40
1.0
 10
-5.6858000000000004
 20
-7.5404
 30
0.0
 10
-5.6858000000000004
 20
-7.5404
 30
0.0
 10
-5.6858000000000004
 20
-4.6516000000000002
 30
0.0
 10
-5.6858000000000004
 20
-4.6516000000000002
 30
0.0
  0
SPLINE
  5
AB
100
AcDbEntity
  8
Ebene 1
370
    40
 62
     0
100
AcDbSpline
210
0.0
220
0.0
230
1.0
 70
     0
 71
     3
 72
     8
 73
     4
 74
     0
 42
0.0000000001
 43
0.0000000001
 40
0.0
 40
0.0
 40
0.0
 40
0.0
 40
1.0
 40
1.0
 40
1.0
 40
1.0
 10
-8.5549999999999997
 20
-11.9818
 30
0.0
 10
-8.5549999999999997
 20
-11.9818
 30
0.0
 10
-5.6858000000000004
 20
-11.9818
 30
0.0
 10
-5.6858000000000004
 20
-11.9818
 30
0.0
  0
SPLINE
  5
AC
100
AcDbEntity
  8
Ebene 1
370
    40
 62
     0
100
AcDbSpline
210
0.0
220
0.0
230
1.0
 70
     0
 71
     3
 72
     8
 73
     4
 74
     0
 42
0.0000000001
 43
0.0000000001
 40
0.0
 40
0.0
 40
0.0
 40
0.0
 40
1.0
 40
1.0
 40
1.0
 40
1.0
 10
-8.5549999999999997
 20
-11.9818
 30
0.0
 10
-8.5549999999999997
 20
-11.9818
 30
0.0
 10
-8.5549999999999997
 20
-9.1126000000000005
 30
0.0
 10
-8.5549999999999997
 20
-9.1126000000000005
 30
0.0
  0
SPLINE
  5
AD
100
AcDbEntity
  8
Ebene 1
370
    40
 62
     0
100
AcDbSpline
210
0.0
220
0.0
230
1.0
 70
     0
 71
     3
 72
     8
 73
     4
 74
     0
 42
0.0000000001
 43
0.0000000001
 40
0.0
 40
0.0
 40
0.0
 40
0.0
 40
1.0
 40
1.0
 40
1.0
 40
1.0
 10
-5.6858000000000004
 20
-11.9818
 30
0.0
 10
-5.6858000000000004
 20
-11.9818
 30
0.0
 10
-5.6858000000000004
 20
-9.1126000000000005
 30
0.0
 10
-5.6858000000000004
 20
-9.1126000000000005
 30
0.0
  0
SPLINE
  5
AE
100
AcDbEntity
  8
Ebene 1
370
    40
 62
     0
100
AcDbSpline
210
0.0
220
0.0
230
1.0
 70
     0
 71
     3
 72
     8
 73
     4
 74
     0
 42
0.0000000001
 43
0.0000000001
 40
0.0
 40
0.0
 40
0.0
 40
0.0
 40
1.0
 40
1.0
 40
1.0
 40
1.0
 10
-8.5549999999999997
 20
-9.1126000000000005
 30
0.0
 10
-8.5549999999999997
 20
-9.1126000000000005
 30
0.0
 10
-5.6858000000000004
 20
-9.1126000000000005
 30
0.0
 10
-5.6858000000000004
 20
-9.1126000000000005
 30
0.0
  0
SPLINE
  5
AF
100
AcDbEntity
  8
Ebene 1
370
    40
 62
     0
100
AcDbSpline
210
0.0
220
0.0
230
1.0
 70
     0
 71
     3
 72
     8
 73
     4
 74
     0
 42
0.0000000001
 43
0.0000000001
 40
0.0
 40
0.0
 40
0.0
 40
0.0
 40
1.0
 40
1.0
 40
1.0
 40
1.0
 10
-4.1726000000000001
 20
-11.9818
 30
0.0
 10
-4.1726000000000001
 20
-11.9818
 30
0.0
 10
-1.2248000000000001
 20
-11.9818
 30
0.0
 10
-1.2248000000000001
 20
-11.9818
 30
0.0
  0
SPLINE
  5
B0
100
AcDbEntity
  8
Ebene 1
370
    40
 62
     0
100
AcDbSpline
210
0.0
220
0.0
230
1.0
 70
     0
 71
     3
 72
     8
 73
     4
 74
     0
 42
0.0000000001
 43
0.0000000001
 40
0.0
 40
0.0
 40
0.0
 40
0.0
 40
1.0
 40
1.0
 40
1.0
 40
1.0
 10
-4.1726000000000001
 20
-11.9818
 30
0.0
 10
-4.1726000000000001
 20
-11.9818
 30
0.0
 10
-4.1726000000000001
 20
-9.1126000000000005
 30
0.0
 10
-4.1726000000000001
 20
-9.1126000000000005
 30
0.0
  0
SPLINE
  5
B1
100
AcDbEntity
  8
Ebene 1
370
    40
 62
     0
100
AcDbSpline
210
0.0
220
0.0
230
1.0
 70
     0
 71
     3
 72
     8
 73
     4
 74
     0
 42
0.0000000001
 43
0.0000000001
 40
0.0
 40
0.0
 40
0.0
 40
0.0
 40
1.0
 40
1.0
 40
1.0
 40
1.0
 10
-1.2248000000000001
 20
-11.9818
 30
0.0
 10
-1.2248000000000001
 20
-11.9818
 30
0.0
 10
-1.2248000000000001
 20
-9.1126000000000005
 30
0.0
 10
-1.2248000000000001
 20
-9.1126000000000005
 30
0.0
  0
SPLINE
  5
B2
100
AcDbEntity
  8
Ebene 1
370
    40
 62
     0
100
AcDbSpline
210
0.0
220
0.0
230
1.0
 70
     0
 71
     3
 72
     8
 73
     4
 74
     0
 42
0.0000000001
 43
0.0000000001
 40
0.0
 40
0.0
 40
0.0
 40
0.0
 40
1.0
 40
1.0
 40
1.0
 40
1.0
 10
-4.1726000000000001
 20
-9.1126000000000005
 30
0.0
 10
-4.1726000000000001
 20
-9.1126000000000005
 30
0.0
 10
-1.2248000000000001
 20
-9.1126000000000005
 30
0.0
 10
-1.2248000000000001
 20
-9.1126000000000005
 30
0.0
  0
SPLINE
  5
B3
100
AcDbEntity
  8
Ebene 1
370
    40
 62
     0
100
AcDbSpline
210
0.0
220
0.0
230
1.0
 70
     0
 71
     3
 72
     8
 73
     4
 74
     0
 42
0.0000000001
 43
0.0000000001
 40
0.0
 40
0.0
 40
0.0
 40
0.0
 40
1.0
 40
1.0
 40
1.0
 40
1.0
 10
13.651800000000001
 20
-11.9818
 30
0.0
 10
13.651800000000001
 20
-11.9818
 30
0.0
 10
16.521000000000001
 20
-11.9818
 30
0.0
 10
16.521000000000001
 20
-11.9818
 30
0.0
  0
SPLINE
  5
B4
100
AcDbEntity
  8
Ebene 1
370
    40
 62
     0
100
AcDbSpline
210
0.0
220
0.0
230
1.0
 70
     0
 71
     3
 72
     8
 73
     4
 74
     0
 42
0.0000000001
 43
0.0000000001
 40
0.0
 40
0.0
 40
0.0
 40
0.0
 40
1.0
 40
1.0
 40
1.0
 40
1.0
 10
16.521000000000001
 20
-9.1126000000000005
 30
0.0
 10
16.521000000000001
 20
-9.1126000000000005
 30
0.0
 10
16.521000000000001
 20
-11.9818
 30
0.0
 10
16.521000000000001
 20
-11.9818
 30
0.0
  0
SPLINE
  5
B5
100
AcDbEntity
  8
Ebene 1
370
    40
 62
     0
100
AcDbSpline
210
0.0
220
0.0
230
1.0
 70
     0
 71
     3
 72
     8
 73
     4
 74
     0
 42
0.0000000001
 43
0.0000000001
 40
0.0
 40
0.0
 40
0.0
 40
0.0
 40
1.0
 40
1.0
 40
1.0
 40
1.0
 10
13.651800000000001
 20
-9.1126000000000005
 30
0.0
 10
13.651800000000001
 20
-9.1126000000000005
 30
0.0
 10
13.651800000000001
 20
-11.9818
 30
0.0
 10
13.651800000000001
 20
-11.9818
 30
0.0
  0
SPLINE
  5
B6
100
AcDbEntity
  8
Ebene 1
370
    20
 62
     0
100
AcDbSpline
210
0.0
220
0.0
230
1.0
 70
     0
 71
     3
 72
     8
 73
     4
 74
     0
 42
0.0000000001
 43
0.0000000001
 40
0.0
 40
0.0
 40
0.0
 40
0.0
 40
1.0
 40
1.0
 40
1.0
 40
1.0
 10
16.403100000000002
 20
33.473199999999999
 30
0.0
 10
16.403100000000002
 20
33.473199999999999
 30
0.0
 10
18.761300000000002
 20
33.139099999999999
 30
0.0
 10
18.761300000000002
 20
33.139099999999999
 30
0.0
  0
SPLINE
  5
B7
100
AcDbEntity
  8
Ebene 1
370
    20
 62
     0
100
AcDbSpline
210
0.0
220
0.0
230
1.0
 70
     0
 71
     3
 72
     8
 73
     4
 74
     0
 42
0.0000000001
 43
0.0000000001
 40
0.0
 40
0.0
 40
0.0
 40
0.0
 40
1.0
 40
1.0
 40
1.0
 40
1.0
 10
16.403100000000002
 20
32.883600000000001
 30
0.0
 10
16.403100000000002
 20
32.883600000000001
 30
0.0
 10
18.761300000000002
 20
33.139099999999999
 30
0.0
 10
18.761300000000002
 20
33.139099999999999
 30
0.0
  0
SPLINE
  5
B8
100
AcDbEntity
  8
Ebene 1
370
    20
 62
     0
100
AcDbSpline
210
0.0
220
0.0
230
1.0
 70
     0
 71
     3
 72
     8
 73
     4
 74
     0
 42
0.0000000001
 43
0.0000000001
 40
0.0
 40
0.0
 40
0.0
 40
0.0
 40
1.0
 40
1.0
 40
1.0
 40
1.0
 10
16.403100000000002
 20
33.866199999999999
 30
0.0
 10
16.403100000000002
 20
33.866199999999999
 30
0.0
 10
21.5715
 20
33.139099999999999
 30
0.0
 10
21.5715
 20
33.139099999999999
 30
0.0
  0
SPLINE
  5
B9
100
AcDbEntity
  8
Ebene 1
370
    20
 62
     0
100
AcDbSpline
210
0.0
220
0.0
230
1.0
 70
     0
 71
     3
 72
     8
 73
     4
 74
     0
 42
0.0000000001
 43
0.0000000001
 40
0.0
 40
0.0
 40
0.0
 40
0.0
 40
1.0
 40
1.0
 40
1.0
 40
1.0
 10
16.403100000000002
 20
32.490600000000001
 30
0.0
 10
16.403100000000002
 20
32.490600000000001
 30
0.0
 10
21.5715
 20
33.139099999999999
 30
0.0
 10
21.5715
 20
33.139099999999999
 30
0.0
  0
SPLINE
  5
BA
100
AcDbEntity
  8
Ebene 1
370
    20
 62
     0
100
AcDbSpline
210
0.0
220
0.0
230
1.0
 70
     0
 71
     3
 72
     8
 73
     4
 74
     0
 42
0.0000000001
 43
0.0000000001
 40
0.0
 40
0.0
 40
0.0
 40
0.0
 40
1.0
 40
1.0
 40
1.0
 40
1.0
 10
16.462
 20
34.200299999999999
 30
0.0
 10
16.462
 20
34.200299999999999
 30
0.0
 10
24.381800000000002
 20
33.139099999999999
 30
0.0
 10
24.381800000000002
 20
33.139099999999999
 30
0.0
  0
SPLINE
  5
BB
100
AcDbEntity
  8
Ebene 1
370
    20
 62
     0
100
AcDbSpline
210
0.0
220
0.0
230
1.0
 70
     0
 71
     3
 72
     8
 73
     4
 74
     0
 42
0.0000000001
 43
0.0000000001
 40
0.0
 40
0.0
 40
0.0
 40
0.0
 40
1.0
 40
1.0
 40
1.0
 40
1.0
 10
16.462
 20
32.097500000000004
 30
0.0
 10
16.462
 20
32.097500000000004
 30
0.0
 10
24.381800000000002
 20
33.139099999999999
 30
0.0
 10
24.381800000000002
 20
33.139099999999999
 30
0.0
  0
SPLINE
  5
BC
100
AcDbEntity
  8
Ebene 1
370
    20
 62
     0
100
AcDbSpline
210
0.0
220
0.0
230
1.0
 70
     0
 71
     3
 72
     8
 73
     4
 74
     0
 42
0.0000000001
 43
0.0000000001
 40
0.0
 40
0.0
 40
0.0
 40
0.0
 40
1.0
 40
1.0
 40
1.0
 40
1.0
 10
16.462
 20
31.763500000000001
 30
0.0
 10
16.462
 20
31.763500000000001
 30
0.0
 10
16.462
 20
34.593299999999999
 30
0.0
 10
16.462
 20
34.593299999999999
 30
0.0
  0
SPLINE
  5
BD
100
AcDbEntity
  8
Ebene 1
370
    20
 62
     0
100
AcDbSpline
210
0.0
220
0.0
230
1.0
 70
     0
 71
     3
 72
     8
 73
     4
 74
     0
 42
0.0000000001
 43
0.0000000001
 40
0.0
 40
0.0
 40
0.0
 40
0.0
 40
1.0
 40
1.0
 40
1.0
 40
1.0
 10
16.462
 20
34.593299999999999
 30
0.0
 10
16.462
 20
34.593299999999999
 30
0.0
 10
27.211600000000001
 20
33.139099999999999
 30
0.0
 10
27.211600000000001
 20
33.139099999999999
 30
0.0
  0
SPLINE
  5
BE
100
AcDbEntity
  8
Ebene 1
370
    20
 62
     0
100
AcDbSpline
210
0.0
220
0.0
230
1.0
 70
     0
 71
     3
 72
     8
 73
     4
 74
     0
 42
0.0000000001
 43
0.0000000001
 40
0.0
 40
0.0
 40
0.0
 40
0.0
 40
1.0
 40
1.0
 40
1.0
 40
1.0
 10
16.462
 20
31.763500000000001
 30
0.0
 10
16.462
 20
31.763500000000001
 30
0.0
 10
27.211600000000001
 20
33.139099999999999
 30
0.0
 10
27.211600000000001
 20
33.139099999999999
 30
0.0
  0
SPLINE
  5
BF
100
AcDbEntity
  8
Ebene 1
370
    20
 62
     0
100
AcDbSpline
210
0.0
220
0.0
230
1.0
 70
     0
 71
     3
 72
     8
 73
     4
 74
     0
 42
0.0000000001
 43
0.0000000001
 40
0.0
 40
0.0
 40
0.0
 40
0.0
 40
1.0
 40
1.0
 40
1.0
 40
1.0
 10
-10.795300000000001
 20
33.139099999999999
 30
0.0
 10
-10.795300000000001
 20
33.139099999999999
 30
0.0
 10
-8.4371000000000009
 20
32.883600000000001
 30
0.0
 10
-8.4371000000000009
 20
32.883600000000001
 30
0.0
  0
SPLINE
  5
C0
100
AcDbEntity
  8
Ebene 1
370
    20
 62
     0
100
AcDbSpline
210
0.0
220
0.0
230
1.0
 70
     0
 71
     3
 72
     8
 73
     4
 74
     0
 42
0.0000000001
 43
0.0000000001
 40
0.0
 40
0.0
 40
0.0
 40
0.0
 40
1.0
 40
1.0
 40
1.0
 40
1.0
 10
-10.795300000000001
 20
33.139099999999999
 30
0.0
 10
-10.795300000000001
 20
33.139099999999999
 30
0.0
 10
-8.4371000000000009
 20
33.473199999999999
 30
0.0
 10
-8.4371000000000009
 20
33.473199999999999
 30
0.0
  0
SPLINE
  5
C1
100
AcDbEntity
  8
Ebene 1
370
    20
 62
     0
100
AcDbSpline
210
0.0
220
0.0
230
1.0
 70
     0
 71
     3
 72
     8
 73
     4
 74
     0
 42
0.0000000001
 43
0.0000000001
 40
0.0
 40
0.0
 40
0.0
 40
0.0
 40
1.0
 40
1.0
 40
1.0
 40
1.0
 10
-13.605500000000001
 20
33.139099999999999
 30
0.0
 10
-13.605500000000001
 20
33.139099999999999
 30
0.0
 10
-8.4371000000000009
 20
32.490600000000001
 30
0.0
 10
-8.4371000000000009
 20
32.490600000000001
 30
0.0
  0
SPLINE
  5
C2
100
AcDbEntity
  8
Ebene 1
370
    20
 62
     0
100
AcDbSpline
210
0.0
220
0.0
230
1.0
 70
     0
 71
     3
 72
     8
 73
     4
 74
     0
 42
0.0000000001
 43
0.0000000001
 40
0.0
 40
0.0
 40
0.0
 40
0.0
 40
1.0
 40
1.0
 40
1.0
 40
1.0
 10
-13.605500000000001
 20
33.139099999999999
 30
0.0
 10
-13.605500000000001
 20
33.139099999999999
 30
0.0
 10
-8.4371000000000009
 20
33.866199999999999
 30
0.0
 10
-8.4371000000000009
 20
33.866199999999999
 30
0.0
  0
SPLINE
  5
C3
100
AcDbEntity
  8
Ebene 1
370
    20
 62
     0
100
AcDbSpline
210
0.0
220
0.0
230
1.0
 70
     0
 71
     3
 72
     8
 73
     4
 74
     0
 42
0.0000000001
 43
0.0000000001
 40
0.0
 40
0.0
 40
0.0
 40
0.0
 40
1.0
 40
1.0
 40
1.0
 40
1.0
 10
-16.415800000000001
 20
33.139099999999999
 30
0.0
 10
-16.415800000000001
 20
33.139099999999999
 30
0.0
 10
-8.4371000000000009
 20
32.097500000000004
 30
0.0
 10
-8.4371000000000009
 20
32.097500000000004
 30
0.0
  0
SPLINE
  5
C4
100
AcDbEntity
  8
Ebene 1
370
    20
 62
     0
100
AcDbSpline
210
0.0
220
0.0
230
1.0
 70
     0
 71
     3
 72
     8
 73
     4
 74
     0
 42
0.0000000001
 43
0.0000000001
 40
0.0
 40
0.0
 40
0.0
 40
0.0
 40
1.0
 40
1.0
 40
1.0
 40
1.0
 10
-16.415800000000001
 20
33.139099999999999
 30
0.0
 10
-16.415800000000001
 20
33.139099999999999
 30
0.0
 10
-8.4371000000000009
 20
34.200299999999999
 30
0.0
 10
-8.4371000000000009
 20
34.200299999999999
 30
0.0
  0
SPLINE
  5
C5
100
AcDbEntity
  8
Ebene 1
370
    20
 62
     0
100
AcDbSpline
210
0.0
220
0.0
230
1.0
 70
     0
 71
     3
 72
     8
 73
     4
 74
     0
 42
0.0000000001
 43
0.0000000001
 40
0.0
 40
0.0
 40
0.0
 40
0.0
 40
1.0
 40
1.0
 40
1.0
 40
1.0
 10
-8.4960000000000004
 20
34.593299999999999
 30
0.0
 10
-8.4960000000000004
 20
34.593299999999999
 30
0.0
 10
-8.4960000000000004
 20
31.763500000000001
 30
0.0
 10
-8.4960000000000004
 20
31.763500000000001
 30
0.0
  0
SPLINE
  5
C6
100
AcDbEntity
  8
Ebene 1
370
    20
 62
     0
100
AcDbSpline
210
0.0
220
0.0
230
1.0
 70
     0
 71
     3
 72
     8
 73
     4
 74
     0
 42
0.0000000001
 43
0.0000000001
 40
0.0
 40
0.0
 40
0.0
 40
0.0
 40
1.0
 40
1.0
 40
1.0
 40
1.0
 10
-19.2456
 20
33.139099999999999
 30
0.0
 10
-19.2456
 20
33.139099999999999
 30
0.0
 10
-8.4960000000000004
 20
31.763500000000001
 30
0.0
 10
-8.4960000000000004
 20
31.763500000000001
 30
0.0
  0
SPLINE
  5
C7
100
AcDbEntity
  8
Ebene 1
370
    20
 62
     0
100
AcDbSpline
210
0.0
220
0.0
230
1.0
 70
     0
 71
     3
 72
     8
 73
     4
 74
     0
 42
0.0000000001
 43
0.0000000001
 40
0.0
 40
0.0
 40
0.0
 40
0.0
 40
1.0
 40
1.0
 40
1.0
 40
1.0
 10
-19.2456
 20
33.139099999999999
 30
0.0
 10
-19.2456
 20
33.139099999999999
 30
0.0
 10
-8.4960000000000004
 20
34.593299999999999
 30
0.0
 10
-8.4960000000000004
 20
34.593299999999999
 30
0.0
  0
SPLINE
  5
C8
100
AcDbEntity
  8
Ebene 1
370
    20
 62
     0
100
AcDbSpline
210
0.0
220
0.0
230
1.0
 70
     0
 71
     3
 72
     8
 73
     4
 74
     0
 42
0.0000000001
 43
0.0000000001
 40
0.0
 40
0.0
 40
0.0
 40
0.0
 40
1.0
 40
1.0
 40
1.0
 40
1.0
 10
-19.2456
 20
33.139099999999999
 30
0.0
 10
-19.2456
 20
33.139099999999999
 30
0.0
 10
27.211600000000001
 20
33.139099999999999
 30
0.0
 10
27.211600000000001
 20
33.139099999999999
 30
0.0
  0
SPLINE
  5
C9
100
AcDbEntity
  8
Ebene 1
370
    20
 62
     0
100
AcDbSpline
210
0.0
220
0.0
230
1.0
 70
     0
 71
     3
 72
     8
 73
     4
 74
     0
 42
0.0000000001
 43
0.0000000001
 40
0.0
 40
0.0
 40
0.0
 40
0.0
 40
1.0
 40
1.0
 40
1.0
 40
1.0
 10
27.211600000000001
 20
39.702800000000003
 30
0.0
 10
27.211600000000001
 20
39.702800000000003
 30
0.0
 10
27.211600000000001
 20
0.5955
 30
0.0
 10
27.211600000000001
 20
0.5955
 30
0.0
  0
SPLINE
  5
CA
100
AcDbEntity
  8
Ebene 1
370
    20
 62
     0
100
AcDbSpline
210
0.0
220
0.0
230
1.0
 70
     0
 71
     3
 72
     8
 73
     4
 74
     0
 42
0.0000000001
 43
0.0000000001
 40
0.0
 40
0.0
 40
0.0
 40
0.0
 40
1.0
 40
1.0
 40
1.0
 40
1.0
 10
-19.2456
 20
39.702800000000003
 30
0.0
 10
-19.2456
 20
39.702800000000003
 30
0.0
 10
-19.2456
 20
0.5955
 30
0.0
 10
-19.2456
 20
0.5955
 30
0.0
  0
TEXT
  5
CC
100
AcDbEntity
  8
Ebene 1
100
AcDbText
 10
-5.2015
 20
35.2702
 30
0.0
 40
7.860816
  1
120
 51
-0.000002
  7
Arial
100
AcDbText
  0
ENDSEC
  0
SECTION
  2
OBJECTS
  0
DICTIONARY
  5
19
100
AcDbDictionary
280
     0
281
     1
  3
ACAD_GROUP
350
1A
  3
ACAD_MLINESTYLE
350
1B
  3
ACAD_LAYOUT
350
1E
  3
ACAD_PLOTSETTINGS
350
22
  3
ACAD_PLOTSTYLENAME
350
1F
  3
ACAD_WIPEOUT_VARS
350
23
  0
DICTIONARY
  5
1A
102
{ACAD_REACTORS
330
19
102
}
100
AcDbDictionary
280
     0
281
     1
  0
DICTIONARY
  5
1B
102
{ACAD_REACTORS
330
19
102
}
100
AcDbDictionary
280
     0
281
     1
  3
Standard
350
1C
  0
MLINESTYLE
  5
1C
102
{ACAD_REACTORS
330
1B
102
}
100
AcDbMlineStyle
  2
Standard
 70
     0
  3

 62
     0
 51
90.0
 52
90.0
 71
     2
 49
0.5
 62
   256
  6
BYLAYER
 49
-0.5
 62
   256
  6
BYLAYER
  0
ACDBDICTIONARYWDFLT
  5
1F
102
{ACAD_REACTORS
330
19
102
}
100
AcDbDictionary
281
     1
  3
Normal
350
1D
100
AcDbDictionaryWithDefault
340
1D
  0
ACDBPLACEHOLDER
  5
1D
102
{ACAD_REACTORS
330
1F
102
}
  0
LAYOUT
  5
20
102
{ACAD_REACTORS
330
1E
102
}
100
AcDbPlotSettings
  1

  2

  4

  6

 40
0.0
 41
0.0
 42
0.0
 43
0.0
 44
0.0
 45
0.0
 46
0.0
 47
0.0
 48
0.0
 49
0.0
140
0.0
141
0.0
142
1.0
143
1.0
 70
  1024
 72
     0
 73
     0
 74
     0
  7

 75
     0
147
1.0
148
0.0
149
0.0
100
AcDbLayout
  1
Model
 70
     0
 71
     0
 10
0.0
 20
0.0
 11
0.0
 21
0.0
 12
0.0
 22
0.0
 32
0.0
 14
0.0
 24
0.0
 34
0.0
 15
0.0
 25
0.0
 35
0.0
146
0.0
 13
0.0
 23
0.0
 33
0.0
 16
0.0
 26
0.0
 36
0.0
 17
0.0
 27
0.0
 37
0.0
 76
     0
330
A
331
0
345
0
346
0
  0
LAYOUT
  5
21
102
{ACAD_REACTORS
330
1E
102
}
100
AcDbPlotSettings
  1

  2

  4

  6

 40
0.0
 41
0.0
 42
0.0
 43
0.0
 44
0.0
 45
0.0
 46
0.0
 47
0.0
 48
0.0
 49
0.0
140
0.0
141
0.0
142
1.0
143
1.0
 70
     0
 72
     0
 73
     0
 74
     0
  7

 75
     0
147
1.0
148
0.0
149
0.0
100
AcDbLayout
  1
Layout1
 70
     0
 71
     0
 10
0.0
 20
0.0
 11
0.0
 21
0.0
 12
0.0
 22
0.0
 32
0.0
 14
0.0
 24
0.0
 34
0.0
 15
0.0
 25
0.0
 35
0.0
146
0.0
 13
0.0
 23
0.0
 33
0.0
 16
0.0
 26
0.0
 36
0.0
 17
0.0
 27
0.0
 37
0.0
 76
     0
330
B
331
0
345
0
346
0
  0
DICTIONARY
  5
1E
102
{ACAD_REACTORS
330
19
102
}
100
AcDbDictionary
280
     0
281
     1
  3
Layout1
350
21
  3
Model
350
20
  0
DICTIONARY
  5
22
102
{ACAD_REACTORS
330
19
102
}
100
AcDbDictionary
280
     0
281
     1
  0
WIPEOUTVARIABLES
  5
23
100
AcDbWipeoutVariables
 70
     1
  0
ENDSEC
  0
EOF
