  0
SECTION
  2
HEADER
  9
$ACADVER
  1
AC1018
  9
$ACADMAINTVER
 70
     0
  9
$DWGCODEPAGE
  3
ANSI_1252
  9
$INSBASE
 10
0.0
 20
0.0
 30
0.0
  9
$EXTMIN
 10
-77.7077
 20
-67.59569999999999
 30
0.0
  9
$EXTMAX
 10
77.6728
 20
67.5057
 30
0.0
  9
$LIMMIN
 10
0.0
 20
0.0
  9
$LIMMAX
 10
12.0
 20
9.0
  9
$ORTHOMODE
 70
     0
  9
$REGENMODE
 70
     1
  9
$FILLMODE
 70
     1
  9
$QTEXTMODE
 70
     0
  9
$MIRRTEXT
 70
     1
  9
$LTSCALE
 40
1.0
  9
$ATTMODE
 70
     1
  9
$TEXTSIZE
 40
0.2
  9
$TRACEWID
 40
0.05
  9
$TEXTSTYLE
  7
Standard
  9
$CLAYER
  8
0
  9
$CELTYPE
  6
ByLayer
  9
$CECOLOR
 62
   256
  9
$CELTSCALE
 40
1.0
  9
$DISPSILH
 70
     0
  9
$DIMSCALE
 40
1.0
  9
$DIMASZ
 40
0.18
  9
$DIMEXO
 40
0.0625
  9
$DIMDLI
 40
0.38
  9
$DIMRND
 40
0.0
  9
$DIMDLE
 40
0.0
  9
$DIMEXE
 40
0.18
  9
$DIMTP
 40
0.0
  9
$DIMTM
 40
0.0
  9
$DIMTXT
 40
0.18
  9
$DIMCEN
 40
0.09
  9
$DIMTSZ
 40
0.0
  9
$DIMTOL
 70
     0
  9
$DIMLIM
 70
     0
  9
$DIMTIH
 70
     1
  9
$DIMTOH
 70
     1
  9
$DIMSE1
 70
     0
  9
$DIMSE2
 70
     0
  9
$DIMTAD
 70
     0
  9
$DIMZIN
 70
     0
  9
$DIMBLK
  1

  9
$DIMASO
 70
     1
  9
$DIMSHO
 70
     1
  9
$DIMPOST
  1

  9
$DIMAPOST
  1

  9
$DIMALT
 70
     0
  9
$DIMALTD
 70
     2
  9
$DIMALTF
 40
25.4
  9
$DIMLFAC
 40
1.0
  9
$DIMTOFL
 70
     0
  9
$DIMTVP
 40
0.0
  9
$DIMTIX
 70
     0
  9
$DIMSOXD
 70
     0
  9
$DIMSAH
 70
     0
  9
$DIMBLK1
  1

  9
$DIMBLK2
  1

  9
$DIMSTYLE
  2
Standard
  9
$DIMCLRD
 70
     0
  9
$DIMCLRE
 70
     0
  9
$DIMCLRT
 70
     0
  9
$DIMTFAC
 40
1.0
  9
$DIMGAP
 40
0.09
  9
$DIMJUST
 70
     0
  9
$DIMSD1
 70
     0
  9
$DIMSD2
 70
     0
  9
$DIMTOLJ
 70
     1
  9
$DIMTZIN
 70
     0
  9
$DIMALTZ
 70
     0
  9
$DIMALTTZ
 70
     0
  9
$DIMUPT
 70
     0
  9
$DIMDEC
 70
     4
  9
$DIMTDEC
 70
     4
  9
$DIMALTU
 70
     2
  9
$DIMALTTD
 70
     2
  9
$DIMTXSTY
  7
Standard
  9
$DIMAUNIT
 70
     0
  9
$DIMADEC
 70
     0
  9
$DIMALTRND
 40
0.0
  9
$DIMAZIN
 70
     0
  9
$DIMDSEP
 70
    46
  9
$DIMATFIT
 70
     3
  9
$DIMFRAC
 70
     0
  9
$DIMLDRBLK
  1

  9
$DIMLUNIT
 70
     2
  9
$DIMLWD
 70
    -2
  9
$DIMLWE
 70
    -2
  9
$DIMTMOVE
 70
     0
  9
$LUNITS
 70
     2
  9
$LUPREC
 70
     4
  9
$SKETCHINC
 40
0.1
  9
$FILLETRAD
 40
0.5
  9
$AUNITS
 70
     0
  9
$AUPREC
 70
     0
  9
$MENU
  1
.
  9
$ELEVATION
 40
0.0
  9
$PELEVATION
 40
0.0
  9
$THICKNESS
 40
0.0
  9
$LIMCHECK
 70
     0
  9
$CHAMFERA
 40
0.5
  9
$CHAMFERB
 40
0.5
  9
$CHAMFERC
 40
1.0
  9
$CHAMFERD
 40
0.0
  9
$SKPOLY
 70
     0
  9
$TDCREATE
 40
2454943.244356065
  9
$TDUCREATE
 40
2454943.202689398
  9
$TDUPDATE
 40
2454943.286022743
  9
$TDUUPDATE
 40
2454943.20268941
  9
$TDINDWG
 40
0.0000000116
  9
$TDUSRTIMER
 40
0.0000000116
  9
$USRTIMER
 70
     1
  9
$ANGBASE
 50
0.0
  9
$ANGDIR
 70
     0
  9
$PDMODE
 70
     0
  9
$PDSIZE
 40
0.0
  9
$PLINEWID
 40
0.0
  9
$SPLFRAME
 70
     0
  9
$SPLINETYPE
 70
     6
  9
$SPLINESEGS
 70
     8
  9
$HANDSEED
  5
61
  9
$SURFTAB1
 70
     6
  9
$SURFTAB2
 70
     6
  9
$SURFTYPE
 70
     6
  9
$SURFU
 70
     6
  9
$SURFV
 70
     6
  9
$UCSBASE
  2

  9
$UCSNAME
  2

  9
$UCSORG
 10
0.0
 20
0.0
 30
0.0
  9
$UCSXDIR
 10
1.0
 20
0.0
 30
0.0
  9
$UCSYDIR
 10
0.0
 20
1.0
 30
0.0
  9
$UCSORTHOREF
  2

  9
$UCSORTHOVIEW
 70
     0
  9
$UCSORGTOP
 10
0.0
 20
0.0
 30
0.0
  9
$UCSORGBOTTOM
 10
0.0
 20
0.0
 30
0.0
  9
$UCSORGLEFT
 10
0.0
 20
0.0
 30
0.0
  9
$UCSORGRIGHT
 10
0.0
 20
0.0
 30
0.0
  9
$UCSORGFRONT
 10
0.0
 20
0.0
 30
0.0
  9
$UCSORGBACK
 10
0.0
 20
0.0
 30
0.0
  9
$PUCSBASE
  2

  9
$PUCSNAME
  2

  9
$PUCSORG
 10
0.0
 20
0.0
 30
0.0
  9
$PUCSXDIR
 10
1.0
 20
0.0
 30
0.0
  9
$PUCSYDIR
 10
0.0
 20
1.0
 30
0.0
  9
$PUCSORTHOREF
  2

  9
$PUCSORTHOVIEW
 70
     0
  9
$PUCSORGTOP
 10
0.0
 20
0.0
 30
0.0
  9
$PUCSORGBOTTOM
 10
0.0
 20
0.0
 30
0.0
  9
$PUCSORGLEFT
 10
0.0
 20
0.0
 30
0.0
  9
$PUCSORGRIGHT
 10
0.0
 20
0.0
 30
0.0
  9
$PUCSORGFRONT
 10
0.0
 20
0.0
 30
0.0
  9
$PUCSORGBACK
 10
0.0
 20
0.0
 30
0.0
  9
$USERI1
 70
     0
  9
$USERI2
 70
     0
  9
$USERI3
 70
     0
  9
$USERI4
 70
     0
  9
$USERI5
 70
     0
  9
$USERR1
 40
0.0
  9
$USERR2
 40
0.0
  9
$USERR3
 40
0.0
  9
$USERR4
 40
0.0
  9
$USERR5
 40
0.0
  9
$WORLDVIEW
 70
     1
  9
$SHADEDGE
 70
     3
  9
$SHADEDIF
 70
    70
  9
$TILEMODE
 70
     1
  9
$MAXACTVP
 70
    64
  9
$PINSBASE
 10
0.0
 20
0.0
 30
0.0
  9
$PLIMCHECK
 70
     0
  9
$PEXTMIN
 10
1.000000000000000E+20
 20
1.000000000000000E+20
 30
1.000000000000000E+20
  9
$PEXTMAX
 10
-1.000000000000000E+20
 20
-1.000000000000000E+20
 30
-1.000000000000000E+20
  9
$PLIMMIN
 10
0.0
 20
0.0
  9
$PLIMMAX
 10
12.0
 20
9.0
  9
$UNITMODE
 70
     0
  9
$VISRETAIN
 70
     1
  9
$PLINEGEN
 70
     0
  9
$PSLTSCALE
 70
     1
  9
$TREEDEPTH
 70
  3020
  9
$CMLSTYLE
  2
Standard
  9
$CMLJUST
 70
     0
  9
$CMLSCALE
 40
1.0
  9
$PROXYGRAPHICS
 70
     1
  9
$MEASUREMENT
 70
     0
  9
$CELWEIGHT
370
    -1
  9
$ENDCAPS
280
     0
  9
$JOINSTYLE
280
     0
  9
$LWDISPLAY
290
     0
  9
$INSUNITS
 70
     4
  9
$HYPERLINKBASE
  1

  9
$STYLESHEET
  1

  9
$XEDIT
290
     1
  9
$CEPSNTYPE
380
     0
  9
$PSTYLEMODE
290
     0
  9
$FINGERPRINTGUID
  2
{FAEB1C30-E019-11D5-929B-00C0DF256EC4}
  9
$VERSIONGUID
  2
{FAEB1C32-E019-11D5-929B-00C0DF256EC4}
  9
$EXTNAMES
290
     1
  9
$PSVPSCALE
 40
0.0
  9
$OLESTARTUP
290
     0
  9
$SORTENTS
280
   127
  9
$INDEXCTL
280
     0
  9
$HIDETEXT
280
     1
  9
$XCLIPFRAME
290
     0
  9
$HALOGAP
280
     0
  9
$OBSCOLOR
 70
   257
  9
$OBSLTYPE
280
     0
  9
$INTERSECTIONDISPLAY
280
     0
  9
$INTERSECTIONCOLOR
 70
   257
  9
$DIMASSOC
280
     2
  9
$PROJECTNAME
  1

  0
ENDSEC
  0
SECTION
  2
CLASSES
  0
CLASS
  1
ACDBDICTIONARYWDFLT
  2
AcDbDictionaryWithDefault
  3
ObjectDBX Classes
 90
        0
 91
        1
280
     0
281
     0
  0
ENDSEC
  0
SECTION
  2
TABLES
  0
TABLE
  2
VPORT
  5
8
330
0
100
AcDbSymbolTable
 70
     2
  0
VPORT
  5
29
330
8
100
AcDbSymbolTableRecord
100
AcDbViewportTableRecord
  2
*Active
 70
     0
 10
0.0
 20
0.0
 11
1.0
 21
1.0
 12
10.42990654205607
 22
4.5
 13
0.0
 23
0.0
 14
0.5
 24
0.5
 15
0.5
 25
0.5
 16
0.0
 26
0.0
 36
1.0
 17
0.0
 27
0.0
 37
0.0
 40
9.0
 41
1.972972972850329
 42
50.0
 43
0.0
 44
0.0
 50
0.0
 51
0.0
 71
     0
 72
   100
 73
     1
 74
     3
 75
     0
 76
     0
 77
     0
 78
     0
281
     0
 65
     1
110
0.0
120
0.0
130
0.0
111
1.0
121
0.0
131
0.0
112
0.0
122
1.0
132
0.0
 79
     0
146
0.0
  0
ENDTAB
  0
TABLE
  2
LTYPE
  5
5
330
0
100
AcDbSymbolTable
 70
     1
  0
LTYPE
  5
14
330
5
100
AcDbSymbolTableRecord
100
AcDbLinetypeTableRecord
  2
ByBlock
 70
     0
  3

 72
    65
 73
     0
 40
0.0
  0
LTYPE
  5
15
330
5
100
AcDbSymbolTableRecord
100
AcDbLinetypeTableRecord
  2
ByLayer
 70
     0
  3

 72
    65
 73
     0
 40
0.0
  0
LTYPE
  5
16
330
5
100
AcDbSymbolTableRecord
100
AcDbLinetypeTableRecord
  2
Continuous
 70
     0
  3
Solid line
 72
    65
 73
     0
 40
0.0
  0
ENDTAB
  0
TABLE
  2
LAYER
  5
2
330
0
100
AcDbSymbolTable
 70
     2
  0
LAYER
  5
10
330
2
100
AcDbSymbolTableRecord
100
AcDbLayerTableRecord
  2
0
 70
     0
 62
     7
  6
Continuous
370
    -3
390
F
  0
LAYER
  5
2B
330
2
100
AcDbSymbolTableRecord
100
AcDbLayerTableRecord
  2
Ebene 1
 70
     0
 62
     7
  6
Continuous
370
    -3
390
F
  0
ENDTAB
  0
TABLE
  2
STYLE
  5
3
330
0
100
AcDbSymbolTable
 70
     1
  0
STYLE
  5
11
330
3
100
AcDbSymbolTableRecord
100
AcDbTextStyleTableRecord
  2
Standard
 70
     0
 40
0.0
 41
1.0
 50
0.0
 71
     0
 42
0.2
  3
txt
  4

  0
ENDTAB
  0
TABLE
  2
VIEW
  5
6
330
0
100
AcDbSymbolTable
 70
     0
  0
ENDTAB
  0
TABLE
  2
UCS
  5
7
330
0
100
AcDbSymbolTable
 70
     0
  0
ENDTAB
  0
TABLE
  2
APPID
  5
9
330
0
100
AcDbSymbolTable
 70
     2
  0
APPID
  5
12
330
9
100
AcDbSymbolTableRecord
100
AcDbRegAppTableRecord
  2
ACAD
 70
     0
  0
APPID
  5
2A
330
9
100
AcDbSymbolTableRecord
100
AcDbRegAppTableRecord
  2
ODA
 70
     0
  0
ENDTAB
  0
TABLE
  2
DIMSTYLE
  5
A
330
0
100
AcDbSymbolTable
 70
     1
100
AcDbDimStyleTable
  0
DIMSTYLE
105
27
330
A
100
AcDbSymbolTableRecord
100
AcDbDimStyleTableRecord
  2
Standard
 70
     0
340
11
  0
ENDTAB
  0
TABLE
  2
BLOCK_RECORD
  5
1
330
0
100
AcDbSymbolTable
 70
     1
  0
BLOCK_RECORD
  5
1F
330
1
100
AcDbSymbolTableRecord
100
AcDbBlockTableRecord
  2
*Model_Space
340
22
  0
BLOCK_RECORD
  5
1B
330
1
100
AcDbSymbolTableRecord
100
AcDbBlockTableRecord
  2
*Paper_Space
340
1E
  0
BLOCK_RECORD
  5
23
330
1
100
AcDbSymbolTableRecord
100
AcDbBlockTableRecord
  2
*Paper_Space0
340
26
  0
ENDTAB
  0
ENDSEC
  0
SECTION
  2
BLOCKS
  0
BLOCK
  5
20
330
1F
100
AcDbEntity
  8
0
100
AcDbBlockBegin
  2
*Model_Space
 70
     0
 71
     0
 10
0.0
 20
0.0
 30
0.0
  3
*Model_Space
  1

  0
ENDBLK
  5
21
330
1F
100
AcDbEntity
  8
0
100
AcDbBlockEnd
  0
BLOCK
  5
1C
330
1B
100
AcDbEntity
 67
     1
  8
0
100
AcDbBlockBegin
  2
*Paper_Space
 70
     0
 71
     0
 10
0.0
 20
0.0
 30
0.0
  3
*Paper_Space
  1

  0
ENDBLK
  5
1D
330
1B
100
AcDbEntity
 67
     1
  8
0
100
AcDbBlockEnd
  0
BLOCK
  5
24
330
23
100
AcDbEntity
  8
0
100
AcDbBlockBegin
  2
*Paper_Space0
 70
     0
 71
     0
 10
0.0
 20
0.0
 30
0.0
  3
*Paper_Space0
  1

  0
ENDBLK
  5
25
330
23
100
AcDbEntity
  8
0
100
AcDbBlockEnd
  0
ENDSEC
  0
SECTION
  2
ENTITIES
  0
SPLINE
  5
2C
330
1F
100
AcDbEntity
  8
Ebene 1
 62
   250
100
AcDbSpline
210
0.0
220
0.0
230
1.0
 70
    11
 71
     3
 72
    44
 73
    40
 74
     0
 42
0.0000000001
 43
0.0000000001
 40
0.0
 40
0.0
 40
0.0
 40
0.0
 40
0.1
 40
0.1
 40
0.1
 40
0.1
 40
0.2
 40
0.2
 40
0.2
 40
0.2
 40
0.3
 40
0.3
 40
0.3
 40
0.3
 40
0.4
 40
0.4
 40
0.4
 40
0.4
 40
0.5
 40
0.5
 40
0.5
 40
0.5
 40
0.6
 40
0.6
 40
0.6
 40
0.6
 40
0.7
 40
0.7
 40
0.7
 40
0.7
 40
0.7999999999999999
 40
0.7999999999999999
 40
0.7999999999999999
 40
0.7999999999999999
 40
0.8999999999999999
 40
0.8999999999999999
 40
0.8999999999999999
 40
0.8999999999999999
 40
1.0
 40
1.0
 40
1.0
 40
1.0
 10
-54.8198
 20
62.4339
 30
0.0
 10
-54.7646
 20
62.77370000000001
 30
0.0
 10
-54.64700000000001
 20
63.183
 30
0.0
 10
-54.4682
 20
63.6604
 30
0.0
 10
-54.4682
 20
63.6604
 30
0.0
 10
-54.2542
 20
64.23660000000001
 30
0.0
 10
-53.9743
 20
64.80930000000001
 30
0.0
 10
-53.6274
 20
65.37730000000001
 30
0.0
 10
-53.6274
 20
65.37730000000001
 30
0.0
 10
-53.2805
 20
65.9464
 30
0.0
 10
-52.8948
 20
66.4344
 30
0.0
 10
-52.4703
 20
66.8437
 30
0.0
 10
-52.4703
 20
66.8437
 30
0.0
 10
-52.4703
 20
66.8437
 30
0.0
 10
-54.988
 20
66.8437
 30
0.0
 10
-54.988
 20
66.8437
 30
0.0
 10
-54.988
 20
66.8437
 30
0.0
 10
-54.988
 20
66.8437
 30
0.0
 10
-54.86810000000001
 20
67.4152
 30
0.0
 10
-54.86810000000001
 20
67.4152
 30
0.0
 10
-54.86810000000001
 20
67.4152
 30
0.0
 10
-54.86810000000001
 20
67.4152
 30
0.0
 10
-51.6436
 20
67.4152
 30
0.0
 10
-51.6436
 20
67.4152
 30
0.0
 10
-51.6436
 20
67.4152
 30
0.0
 10
-51.6436
 20
67.4152
 30
0.0
 10
-51.7601
 20
66.8437
 30
0.0
 10
-51.7601
 20
66.8437
 30
0.0
 10
-51.7601
 20
66.8437
 30
0.0
 10
-52.30690000000001
 20
66.3639
 30
0.0
 10
-52.7843
 20
65.74420000000001
 30
0.0
 10
-53.1935
 20
64.98690000000001
 30
0.0
 10
-53.1935
 20
64.98690000000001
 30
0.0
 10
-53.66860000000001
 20
64.11200000000001
 30
0.0
 10
-53.9943
 20
63.2606
 30
0.0
 10
-54.16840000000001
 20
62.4339
 30
0.0
 10
-54.16840000000001
 20
62.4339
 30
0.0
 10
-54.16840000000001
 20
62.4339
 30
0.0
 10
-54.8198
 20
62.4339
 30
0.0
 10
-54.8198
 20
62.4339
 30
0.0
  0
SPLINE
  5
2D
330
1F
100
AcDbEntity
  8
Ebene 1
 62
   250
100
AcDbSpline
210
0.0
220
0.0
230
1.0
 70
    11
 71
     3
 72
   120
 73
   116
 74
     0
 42
0.0000000001
 43
0.0000000001
 40
0.0
 40
0.0
 40
0.0
 40
0.0
 40
0.0344827586206897
 40
0.0344827586206897
 40
0.0344827586206897
 40
0.0344827586206897
 40
0.0689655172413793
 40
0.0689655172413793
 40
0.0689655172413793
 40
0.0689655172413793
 40
0.103448275862069
 40
0.103448275862069
 40
0.103448275862069
 40
0.103448275862069
 40
0.1379310344827586
 40
0.1379310344827586
 40
0.1379310344827586
 40
0.1379310344827586
 40
0.1724137931034483
 40
0.1724137931034483
 40
0.1724137931034483
 40
0.1724137931034483
 40
0.206896551724138
 40
0.206896551724138
 40
0.206896551724138
 40
0.206896551724138
 40
0.2413793103448276
 40
0.2413793103448276
 40
0.2413793103448276
 40
0.2413793103448276
 40
0.2758620689655173
 40
0.2758620689655173
 40
0.2758620689655173
 40
0.2758620689655173
 40
0.310344827586207
 40
0.310344827586207
 40
0.310344827586207
 40
0.310344827586207
 40
0.3448275862068966
 40
0.3448275862068966
 40
0.3448275862068966
 40
0.3448275862068966
 40
0.3793103448275863
 40
0.3793103448275863
 40
0.3793103448275863
 40
0.3793103448275863
 40
0.413793103448276
 40
0.413793103448276
 40
0.413793103448276
 40
0.413793103448276
 40
0.4482758620689656
 40
0.4482758620689656
 40
0.4482758620689656
 40
0.4482758620689656
 40
0.4827586206896553
 40
0.4827586206896553
 40
0.4827586206896553
 40
0.4827586206896553
 40
0.517241379310345
 40
0.517241379310345
 40
0.517241379310345
 40
0.517241379310345
 40
0.5517241379310346
 40
0.5517241379310346
 40
0.5517241379310346
 40
0.5517241379310346
 40
0.5862068965517242
 40
0.5862068965517242
 40
0.5862068965517242
 40
0.5862068965517242
 40
0.6206896551724138
 40
0.6206896551724138
 40
0.6206896551724138
 40
0.6206896551724138
 40
0.6551724137931034
 40
0.6551724137931034
 40
0.6551724137931034
 40
0.6551724137931034
 40
0.689655172413793
 40
0.689655172413793
 40
0.689655172413793
 40
0.689655172413793
 40
0.7241379310344827
 40
0.7241379310344827
 40
0.7241379310344827
 40
0.7241379310344827
 40
0.7586206896551723
 40
0.7586206896551723
 40
0.7586206896551723
 40
0.7586206896551723
 40
0.7931034482758619
 40
0.7931034482758619
 40
0.7931034482758619
 40
0.7931034482758619
 40
0.8275862068965515
 40
0.8275862068965515
 40
0.8275862068965515
 40
0.8275862068965515
 40
0.8620689655172411
 40
0.8620689655172411
 40
0.8620689655172411
 40
0.8620689655172411
 40
0.8965517241379307
 40
0.8965517241379307
 40
0.8965517241379307
 40
0.8965517241379307
 40
0.9310344827586203
 40
0.9310344827586203
 40
0.9310344827586203
 40
0.9310344827586203
 40
0.9655172413793099
 40
0.9655172413793099
 40
0.9655172413793099
 40
0.9655172413793099
 40
1.0
 40
1.0
 40
1.0
 40
1.0
 10
-51.42610000000001
 20
63.8779
 30
0.0
 10
-51.42610000000001
 20
63.8779
 30
0.0
 10
-50.7923
 20
63.9391
 30
0.0
 10
-50.7923
 20
63.9391
 30
0.0
 10
-50.7923
 20
63.9391
 30
0.0
 10
-50.797
 20
63.84970000000001
 30
0.0
 10
-50.7993
 20
63.7956
 30
0.0
 10
-50.7993
 20
63.77800000000001
 30
0.0
 10
-50.7993
 20
63.77800000000001
 30
0.0
 10
-50.7993
 20
63.6263
 30
0.0
 10
-50.7605
 20
63.47340000000001
 30
0.0
 10
-50.6841
 20
63.3194
 30
0.0
 10
-50.6841
 20
63.3194
 30
0.0
 10
-50.6065
 20
63.1653
 30
0.0
 10
-50.5018
 20
63.04770000000001
 30
0.0
 10
-50.3701
 20
62.9666
 30
0.0
 10
-50.3701
 20
62.9666
 30
0.0
 10
-50.23840000000001
 20
62.8843
 30
0.0
 10
-50.0985
 20
62.8443
 30
0.0
 10
-49.9515
 20
62.8443
 30
0.0
 10
-49.9515
 20
62.8443
 30
0.0
 10
-49.7586
 20
62.8443
 30
0.0
 10
-49.5622
 20
62.9102
 30
0.0
 10
-49.36230000000001
 20
63.0442
 30
0.0
 10
-49.36230000000001
 20
63.0442
 30
0.0
 10
-49.16240000000001
 20
63.1771
 30
0.0
 10
-49.0013
 20
63.37110000000001
 30
0.0
 10
-48.8767
 20
63.6263
 30
0.0
 10
-48.8767
 20
63.6263
 30
0.0
 10
-48.7532
 20
63.88030000000001
 30
0.0
 10
-48.6909
 20
64.1331
 30
0.0
 10
-48.6909
 20
64.3836
 30
0.0
 10
-48.6909
 20
64.3836
 30
0.0
 10
-48.6909
 20
64.6658
 30
0.0
 10
-48.7744
 20
64.89280000000001
 30
0.0
 10
-48.9402
 20
65.0621
 30
0.0
 10
-48.9402
 20
65.0621
 30
0.0
 10
-49.1071
 20
65.23260000000001
 30
0.0
 10
-49.3259
 20
65.3173
 30
0.0
 10
-49.5963
 20
65.3173
 30
0.0
 10
-49.5963
 20
65.3173
 30
0.0
 10
-49.7786
 20
65.3173
 30
0.0
 10
-49.95030000000001
 20
65.27380000000001
 30
0.0
 10
-50.1114
 20
65.18680000000001
 30
0.0
 10
-50.1114
 20
65.18680000000001
 30
0.0
 10
-50.27370000000001
 20
65.0997
 30
0.0
 10
-50.4242
 20
64.968
 30
0.0
 10
-50.5653
 20
64.794
 30
0.0
 10
-50.5653
 20
64.794
 30
0.0
 10
-50.5653
 20
64.794
 30
0.0
 10
-51.1098
 20
64.83160000000001
 30
0.0
 10
-51.1098
 20
64.83160000000001
 30
0.0
 10
-51.1098
 20
64.83160000000001
 30
0.0
 10
-51.1098
 20
64.83160000000001
 30
0.0
 10
-50.3478
 20
67.4152
 30
0.0
 10
-50.3478
 20
67.4152
 30
0.0
 10
-50.3478
 20
67.4152
 30
0.0
 10
-50.3478
 20
67.4152
 30
0.0
 10
-47.8806
 20
67.4152
 30
0.0
 10
-47.8806
 20
67.4152
 30
0.0
 10
-47.8806
 20
67.4152
 30
0.0
 10
-47.8806
 20
67.4152
 30
0.0
 10
-48.0018
 20
66.8437
 30
0.0
 10
-48.0018
 20
66.8437
 30
0.0
 10
-48.0018
 20
66.8437
 30
0.0
 10
-48.0018
 20
66.8437
 30
0.0
 10
-49.9209
 20
66.8437
 30
0.0
 10
-49.9209
 20
66.8437
 30
0.0
 10
-49.9209
 20
66.8437
 30
0.0
 10
-49.9209
 20
66.8437
 30
0.0
 10
-50.2995
 20
65.55840000000001
 30
0.0
 10
-50.2995
 20
65.55840000000001
 30
0.0
 10
-50.2995
 20
65.55840000000001
 30
0.0
 10
-50.1573
 20
65.6618
 30
0.0
 10
-50.0103
 20
65.7394
 30
0.0
 10
-49.8609
 20
65.7912
 30
0.0
 10
-49.8609
 20
65.7912
 30
0.0
 10
-49.7104
 20
65.8429
 30
0.0
 10
-49.5552
 20
65.86880000000001
 30
0.0
 10
-49.3964
 20
65.86880000000001
 30
0.0
 10
-49.3964
 20
65.86880000000001
 30
0.0
 10
-49.0107
 20
65.86880000000001
 30
0.0
 10
-48.6944
 20
65.7418
 30
0.0
 10
-48.4463
 20
65.48660000000001
 30
0.0
 10
-48.4463
 20
65.48660000000001
 30
0.0
 10
-48.1981
 20
65.23140000000001
 30
0.0
 10
-48.0735
 20
64.8822
 30
0.0
 10
-48.0735
 20
64.4389
 30
0.0
 10
-48.0735
 20
64.4389
 30
0.0
 10
-48.0735
 20
64.05080000000001
 30
0.0
 10
-48.1593
 20
63.6933
 30
0.0
 10
-48.32870000000001
 20
63.3652
 30
0.0
 10
-48.32870000000001
 20
63.3652
 30
0.0
 10
-48.4992
 20
63.0383
 30
0.0
 10
-48.7332
 20
62.7867
 30
0.0
 10
-49.02950000000001
 20
62.6115
 30
0.0
 10
-49.02950000000001
 20
62.6115
 30
0.0
 10
-49.32700000000001
 20
62.43510000000001
 30
0.0
 10
-49.6481
 20
62.3481
 30
0.0
 10
-49.9926
 20
62.3481
 30
0.0
 10
-49.9926
 20
62.3481
 30
0.0
 10
-50.2819
 20
62.3481
 30
0.0
 10
-50.5383
 20
62.4127
 30
0.0
 10
-50.76170000000001
 20
62.5444
 30
0.0
 10
-50.76170000000001
 20
62.5444
 30
0.0
 10
-50.98390000000001
 20
62.675
 30
0.0
 10
-51.1509
 20
62.8549
 30
0.0
 10
-51.2626
 20
63.0854
 30
0.0
 10
-51.2626
 20
63.0854
 30
0.0
 10
-51.37430000000001
 20
63.3147
 30
0.0
 10
-51.4296
 20
63.544
 30
0.0
 10
-51.4296
 20
63.7745
 30
0.0
 10
-51.4296
 20
63.7745
 30
0.0
 10
-51.4296
 20
63.79680000000001
 30
0.0
 10
-51.4284
 20
63.8309
 30
0.0
 10
-51.42610000000001
 20
63.8779
 30
0.0
  0
SPLINE
  5
2E
330
1F
100
AcDbEntity
  8
Ebene 1
 62
   250
100
AcDbSpline
210
0.0
220
0.0
230
1.0
 70
    11
 71
     3
 72
    52
 73
    48
 74
     0
 42
0.0000000001
 43
0.0000000001
 40
0.0
 40
0.0
 40
0.0
 40
0.0
 40
0.0833333333333333
 40
0.0833333333333333
 40
0.0833333333333333
 40
0.0833333333333333
 40
0.1666666666666667
 40
0.1666666666666667
 40
0.1666666666666667
 40
0.1666666666666667
 40
0.25
 40
0.25
 40
0.25
 40
0.25
 40
0.3333333333333333
 40
0.3333333333333333
 40
0.3333333333333333
 40
0.3333333333333333
 40
0.4166666666666666
 40
0.4166666666666666
 40
0.4166666666666666
 40
0.4166666666666666
 40
0.4999999999999999
 40
0.4999999999999999
 40
0.4999999999999999
 40
0.4999999999999999
 40
0.5833333333333333
 40
0.5833333333333333
 40
0.5833333333333333
 40
0.5833333333333333
 40
0.6666666666666666
 40
0.6666666666666666
 40
0.6666666666666666
 40
0.6666666666666666
 40
0.75
 40
0.75
 40
0.75
 40
0.75
 40
0.8333333333333334
 40
0.8333333333333334
 40
0.8333333333333334
 40
0.8333333333333334
 40
0.9166666666666667
 40
0.9166666666666667
 40
0.9166666666666667
 40
0.9166666666666667
 40
1.0
 40
1.0
 40
1.0
 40
1.0
 10
-47.4949
 20
64.0908
 30
0.0
 10
-47.4949
 20
64.51770000000001
 30
0.0
 10
-47.4314
 20
64.95270000000001
 30
0.0
 10
-47.3044
 20
65.39370000000001
 30
0.0
 10
-47.3044
 20
65.39370000000001
 30
0.0
 10
-47.17630000000001
 20
65.8347
 30
0.0
 10
-47.0351
 20
66.1863
 30
0.0
 10
-46.8787
 20
66.4509
 30
0.0
 10
-46.8787
 20
66.4509
 30
0.0
 10
-46.7223
 20
66.71550000000001
 30
0.0
 10
-46.56010000000001
 20
66.9213
 30
0.0
 10
-46.3931
 20
67.0706
 30
0.0
 10
-46.3931
 20
67.0706
 30
0.0
 10
-46.22490000000001
 20
67.21990000000001
 30
0.0
 10
-46.06030000000001
 20
67.3305
 30
0.0
 10
-45.898
 20
67.3999
 30
0.0
 10
-45.898
 20
67.3999
 30
0.0
 10
-45.73690000000001
 20
67.4704
 30
0.0
 10
-45.557
 20
67.5057
 30
0.0
 10
-45.3594
 20
67.5057
 30
0.0
 10
-45.3594
 20
67.5057
 30
0.0
 10
-44.9737
 20
67.5057
 30
0.0
 10
-44.6515
 20
67.36110000000001
 30
0.0
 10
-44.3928
 20
67.0741
 30
0.0
 10
-44.3928
 20
67.0741
 30
0.0
 10
-44.1341
 20
66.7872
 30
0.0
 10
-44.0048
 20
66.3733
 30
0.0
 10
-44.0048
 20
65.83120000000001
 30
0.0
 10
-44.0048
 20
65.83120000000001
 30
0.0
 10
-44.0048
 20
65.2726
 30
0.0
 10
-44.0953
 20
64.71990000000001
 30
0.0
 10
-44.274
 20
64.1743
 30
0.0
 10
-44.274
 20
64.1743
 30
0.0
 10
-44.4857
 20
63.52630000000001
 30
0.0
 10
-44.77970000000001
 20
63.0407
 30
0.0
 10
-45.156
 20
62.7161
 30
0.0
 10
-45.156
 20
62.7161
 30
0.0
 10
-45.4453
 20
62.47040000000001
 30
0.0
 10
-45.7745
 20
62.3481
 30
0.0
 10
-46.145
 20
62.3481
 30
0.0
 10
-46.145
 20
62.3481
 30
0.0
 10
-46.5236
 20
62.3481
 30
0.0
 10
-46.8435
 20
62.4962
 30
0.0
 10
-47.1045
 20
62.7937
 30
0.0
 10
-47.1045
 20
62.7937
 30
0.0
 10
-47.3644
 20
63.0912
 30
0.0
 10
-47.4949
 20
63.524
 30
0.0
 10
-47.4949
 20
64.0908
 30
0.0
  0
SPLINE
  5
2F
330
1F
100
AcDbEntity
  8
Ebene 1
 62
   250
100
AcDbSpline
210
0.0
220
0.0
230
1.0
 70
    11
 71
     3
 72
    48
 73
    44
 74
     0
 42
0.0000000001
 43
0.0000000001
 40
0.0
 40
0.0
 40
0.0
 40
0.0
 40
0.0909090909090909
 40
0.0909090909090909
 40
0.0909090909090909
 40
0.0909090909090909
 40
0.1818181818181818
 40
0.1818181818181818
 40
0.1818181818181818
 40
0.1818181818181818
 40
0.2727272727272727
 40
0.2727272727272727
 40
0.2727272727272727
 40
0.2727272727272727
 40
0.3636363636363637
 40
0.3636363636363637
 40
0.3636363636363637
 40
0.3636363636363637
 40
0.4545454545454546
 40
0.4545454545454546
 40
0.4545454545454546
 40
0.4545454545454546
 40
0.5454545454545455
 40
0.5454545454545455
 40
0.5454545454545455
 40
0.5454545454545455
 40
0.6363636363636365
 40
0.6363636363636365
 40
0.6363636363636365
 40
0.6363636363636365
 40
0.7272727272727274
 40
0.7272727272727274
 40
0.7272727272727274
 40
0.7272727272727274
 40
0.8181818181818183
 40
0.8181818181818183
 40
0.8181818181818183
 40
0.8181818181818183
 40
0.9090909090909093
 40
0.9090909090909093
 40
0.9090909090909093
 40
0.9090909090909093
 40
1.0
 40
1.0
 40
1.0
 40
1.0
 10
-46.8917
 20
63.932
 30
0.0
 10
-46.8917
 20
63.62280000000001
 30
0.0
 10
-46.8411
 20
63.38050000000001
 30
0.0
 10
-46.7376
 20
63.2053
 30
0.0
 10
-46.7376
 20
63.2053
 30
0.0
 10
-46.5977
 20
62.96420000000001
 30
0.0
 10
-46.3896
 20
62.8443
 30
0.0
 10
-46.1132
 20
62.8443
 30
0.0
 10
-46.1132
 20
62.8443
 30
0.0
 10
-45.8721
 20
62.8443
 30
0.0
 10
-45.65340000000001
 20
62.9525
 30
0.0
 10
-45.4559
 20
63.17120000000001
 30
0.0
 10
-45.4559
 20
63.17120000000001
 30
0.0
 10
-45.1713
 20
63.4793
 30
0.0
 10
-44.9561
 20
63.9297
 30
0.0
 10
-44.8126
 20
64.5235
 30
0.0
 10
-44.8126
 20
64.5235
 30
0.0
 10
-44.6692
 20
65.1174
 30
0.0
 10
-44.5974
 20
65.6019
 30
0.0
 10
-44.5974
 20
65.97930000000001
 30
0.0
 10
-44.5974
 20
65.97930000000001
 30
0.0
 10
-44.5974
 20
66.3415
 30
0.0
 10
-44.6668
 20
66.60380000000001
 30
0.0
 10
-44.8067
 20
66.7649
 30
0.0
 10
-44.8067
 20
66.7649
 30
0.0
 10
-44.9455
 20
66.92480000000001
 30
0.0
 10
-45.1278
 20
67.0059
 30
0.0
 10
-45.35590000000001
 20
67.0059
 30
0.0
 10
-45.35590000000001
 20
67.0059
 30
0.0
 10
-45.52050000000001
 20
67.0059
 30
0.0
 10
-45.6758
 20
66.9636
 30
0.0
 10
-45.8192
 20
66.87780000000001
 30
0.0
 10
-45.8192
 20
66.87780000000001
 30
0.0
 10
-45.96270000000001
 20
66.79310000000001
 30
0.0
 10
-46.1003
 20
66.6473
 30
0.0
 10
-46.2308
 20
66.44030000000001
 30
0.0
 10
-46.2308
 20
66.44030000000001
 30
0.0
 10
-46.4166
 20
66.14870000000001
 30
0.0
 10
-46.5789
 20
65.7124
 30
0.0
 10
-46.7165
 20
65.1315
 30
0.0
 10
-46.7165
 20
65.1315
 30
0.0
 10
-46.8341
 20
64.6352
 30
0.0
 10
-46.8917
 20
64.2354
 30
0.0
 10
-46.8917
 20
63.932
 30
0.0
  0
SPLINE
  5
30
330
1F
100
AcDbEntity
  8
Ebene 1
 62
   250
100
AcDbSpline
210
0.0
220
0.0
230
1.0
 70
    11
 71
     3
 72
    44
 73
    40
 74
     0
 42
0.0000000001
 43
0.0000000001
 40
0.0
 40
0.0
 40
0.0
 40
0.0
 40
0.1
 40
0.1
 40
0.1
 40
0.1
 40
0.2
 40
0.2
 40
0.2
 40
0.2
 40
0.3
 40
0.3
 40
0.3
 40
0.3
 40
0.4
 40
0.4
 40
0.4
 40
0.4
 40
0.5
 40
0.5
 40
0.5
 40
0.5
 40
0.6
 40
0.6
 40
0.6
 40
0.6
 40
0.7
 40
0.7
 40
0.7
 40
0.7
 40
0.7999999999999999
 40
0.7999999999999999
 40
0.7999999999999999
 40
0.7999999999999999
 40
0.8999999999999999
 40
0.8999999999999999
 40
0.8999999999999999
 40
0.8999999999999999
 40
1.0
 40
1.0
 40
1.0
 40
1.0
 10
3.8222
 20
62.4339
 30
0.0
 10
3.8774
 20
62.77370000000001
 30
0.0
 10
3.995
 20
63.183
 30
0.0
 10
4.1738
 20
63.6604
 30
0.0
 10
4.1738
 20
63.6604
 30
0.0
 10
4.3878
 20
64.23660000000001
 30
0.0
 10
4.6677
 20
64.80930000000001
 30
0.0
 10
5.014600000000001
 20
65.37730000000001
 30
0.0
 10
5.014600000000001
 20
65.37730000000001
 30
0.0
 10
5.3615
 20
65.9464
 30
0.0
 10
5.7472
 20
66.4344
 30
0.0
 10
6.1717
 20
66.8437
 30
0.0
 10
6.1717
 20
66.8437
 30
0.0
 10
6.1717
 20
66.8437
 30
0.0
 10
3.654
 20
66.8437
 30
0.0
 10
3.654
 20
66.8437
 30
0.0
 10
3.654
 20
66.8437
 30
0.0
 10
3.654
 20
66.8437
 30
0.0
 10
3.7739
 20
67.4152
 30
0.0
 10
3.7739
 20
67.4152
 30
0.0
 10
3.7739
 20
67.4152
 30
0.0
 10
3.7739
 20
67.4152
 30
0.0
 10
6.9984
 20
67.4152
 30
0.0
 10
6.9984
 20
67.4152
 30
0.0
 10
6.9984
 20
67.4152
 30
0.0
 10
6.9984
 20
67.4152
 30
0.0
 10
6.8819
 20
66.8437
 30
0.0
 10
6.8819
 20
66.8437
 30
0.0
 10
6.8819
 20
66.8437
 30
0.0
 10
6.335100000000001
 20
66.3639
 30
0.0
 10
5.8577
 20
65.74420000000001
 30
0.0
 10
5.4485
 20
64.98690000000001
 30
0.0
 10
5.4485
 20
64.98690000000001
 30
0.0
 10
4.9734
 20
64.11200000000001
 30
0.0
 10
4.6477
 20
63.2606
 30
0.0
 10
4.4736
 20
62.4339
 30
0.0
 10
4.4736
 20
62.4339
 30
0.0
 10
4.4736
 20
62.4339
 30
0.0
 10
3.8222
 20
62.4339
 30
0.0
 10
3.8222
 20
62.4339
 30
0.0
  0
SPLINE
  5
31
330
1F
100
AcDbEntity
  8
Ebene 1
 62
   250
100
AcDbSpline
210
0.0
220
0.0
230
1.0
 70
    11
 71
     3
 72
   120
 73
   116
 74
     0
 42
0.0000000001
 43
0.0000000001
 40
0.0
 40
0.0
 40
0.0
 40
0.0
 40
0.0344827586206897
 40
0.0344827586206897
 40
0.0344827586206897
 40
0.0344827586206897
 40
0.0689655172413793
 40
0.0689655172413793
 40
0.0689655172413793
 40
0.0689655172413793
 40
0.103448275862069
 40
0.103448275862069
 40
0.103448275862069
 40
0.103448275862069
 40
0.1379310344827586
 40
0.1379310344827586
 40
0.1379310344827586
 40
0.1379310344827586
 40
0.1724137931034483
 40
0.1724137931034483
 40
0.1724137931034483
 40
0.1724137931034483
 40
0.206896551724138
 40
0.206896551724138
 40
0.206896551724138
 40
0.206896551724138
 40
0.2413793103448276
 40
0.2413793103448276
 40
0.2413793103448276
 40
0.2413793103448276
 40
0.2758620689655173
 40
0.2758620689655173
 40
0.2758620689655173
 40
0.2758620689655173
 40
0.310344827586207
 40
0.310344827586207
 40
0.310344827586207
 40
0.310344827586207
 40
0.3448275862068966
 40
0.3448275862068966
 40
0.3448275862068966
 40
0.3448275862068966
 40
0.3793103448275863
 40
0.3793103448275863
 40
0.3793103448275863
 40
0.3793103448275863
 40
0.413793103448276
 40
0.413793103448276
 40
0.413793103448276
 40
0.413793103448276
 40
0.4482758620689656
 40
0.4482758620689656
 40
0.4482758620689656
 40
0.4482758620689656
 40
0.4827586206896553
 40
0.4827586206896553
 40
0.4827586206896553
 40
0.4827586206896553
 40
0.517241379310345
 40
0.517241379310345
 40
0.517241379310345
 40
0.517241379310345
 40
0.5517241379310346
 40
0.5517241379310346
 40
0.5517241379310346
 40
0.5517241379310346
 40
0.5862068965517242
 40
0.5862068965517242
 40
0.5862068965517242
 40
0.5862068965517242
 40
0.6206896551724138
 40
0.6206896551724138
 40
0.6206896551724138
 40
0.6206896551724138
 40
0.6551724137931034
 40
0.6551724137931034
 40
0.6551724137931034
 40
0.6551724137931034
 40
0.689655172413793
 40
0.689655172413793
 40
0.689655172413793
 40
0.689655172413793
 40
0.7241379310344827
 40
0.7241379310344827
 40
0.7241379310344827
 40
0.7241379310344827
 40
0.7586206896551723
 40
0.7586206896551723
 40
0.7586206896551723
 40
0.7586206896551723
 40
0.7931034482758619
 40
0.7931034482758619
 40
0.7931034482758619
 40
0.7931034482758619
 40
0.8275862068965515
 40
0.8275862068965515
 40
0.8275862068965515
 40
0.8275862068965515
 40
0.8620689655172411
 40
0.8620689655172411
 40
0.8620689655172411
 40
0.8620689655172411
 40
0.8965517241379307
 40
0.8965517241379307
 40
0.8965517241379307
 40
0.8965517241379307
 40
0.9310344827586203
 40
0.9310344827586203
 40
0.9310344827586203
 40
0.9310344827586203
 40
0.9655172413793099
 40
0.9655172413793099
 40
0.9655172413793099
 40
0.9655172413793099
 40
1.0
 40
1.0
 40
1.0
 40
1.0
 10
7.2159
 20
63.8779
 30
0.0
 10
7.2159
 20
63.8779
 30
0.0
 10
7.8497
 20
63.9391
 30
0.0
 10
7.8497
 20
63.9391
 30
0.0
 10
7.8497
 20
63.9391
 30
0.0
 10
7.845000000000001
 20
63.84970000000001
 30
0.0
 10
7.842700000000001
 20
63.7956
 30
0.0
 10
7.842700000000001
 20
63.77800000000001
 30
0.0
 10
7.842700000000001
 20
63.77800000000001
 30
0.0
 10
7.842700000000001
 20
63.6263
 30
0.0
 10
7.8815
 20
63.47340000000001
 30
0.0
 10
7.9579
 20
63.3194
 30
0.0
 10
7.9579
 20
63.3194
 30
0.0
 10
8.035500000000001
 20
63.1653
 30
0.0
 10
8.1402
 20
63.04770000000001
 30
0.0
 10
8.271900000000001
 20
62.9666
 30
0.0
 10
8.271900000000001
 20
62.9666
 30
0.0
 10
8.403600000000001
 20
62.8843
 30
0.0
 10
8.5435
 20
62.8443
 30
0.0
 10
8.6905
 20
62.8443
 30
0.0
 10
8.6905
 20
62.8443
 30
0.0
 10
8.8834
 20
62.8443
 30
0.0
 10
9.079800000000001
 20
62.9102
 30
0.0
 10
9.2797
 20
63.0442
 30
0.0
 10
9.2797
 20
63.0442
 30
0.0
 10
9.4796
 20
63.1771
 30
0.0
 10
9.640700000000001
 20
63.37110000000001
 30
0.0
 10
9.7653
 20
63.6263
 30
0.0
 10
9.7653
 20
63.6263
 30
0.0
 10
9.8888
 20
63.88030000000001
 30
0.0
 10
9.9511
 20
64.1331
 30
0.0
 10
9.9511
 20
64.3836
 30
0.0
 10
9.9511
 20
64.3836
 30
0.0
 10
9.9511
 20
64.6658
 30
0.0
 10
9.867600000000001
 20
64.89280000000001
 30
0.0
 10
9.7018
 20
65.0621
 30
0.0
 10
9.7018
 20
65.0621
 30
0.0
 10
9.5349
 20
65.23260000000001
 30
0.0
 10
9.316100000000001
 20
65.3173
 30
0.0
 10
9.0457
 20
65.3173
 30
0.0
 10
9.0457
 20
65.3173
 30
0.0
 10
8.8634
 20
65.3173
 30
0.0
 10
8.691700000000001
 20
65.27380000000001
 30
0.0
 10
8.5306
 20
65.18680000000001
 30
0.0
 10
8.5306
 20
65.18680000000001
 30
0.0
 10
8.3683
 20
65.0997
 30
0.0
 10
8.2178
 20
64.968
 30
0.0
 10
8.076700000000001
 20
64.794
 30
0.0
 10
8.076700000000001
 20
64.794
 30
0.0
 10
8.076700000000001
 20
64.794
 30
0.0
 10
7.532200000000001
 20
64.83160000000001
 30
0.0
 10
7.532200000000001
 20
64.83160000000001
 30
0.0
 10
7.532200000000001
 20
64.83160000000001
 30
0.0
 10
7.532200000000001
 20
64.83160000000001
 30
0.0
 10
8.2942
 20
67.4152
 30
0.0
 10
8.2942
 20
67.4152
 30
0.0
 10
8.2942
 20
67.4152
 30
0.0
 10
8.2942
 20
67.4152
 30
0.0
 10
10.7614
 20
67.4152
 30
0.0
 10
10.7614
 20
67.4152
 30
0.0
 10
10.7614
 20
67.4152
 30
0.0
 10
10.7614
 20
67.4152
 30
0.0
 10
10.6402
 20
66.8437
 30
0.0
 10
10.6402
 20
66.8437
 30
0.0
 10
10.6402
 20
66.8437
 30
0.0
 10
10.6402
 20
66.8437
 30
0.0
 10
8.7211
 20
66.8437
 30
0.0
 10
8.7211
 20
66.8437
 30
0.0
 10
8.7211
 20
66.8437
 30
0.0
 10
8.7211
 20
66.8437
 30
0.0
 10
8.342500000000001
 20
65.55840000000001
 30
0.0
 10
8.342500000000001
 20
65.55840000000001
 30
0.0
 10
8.342500000000001
 20
65.55840000000001
 30
0.0
 10
8.4847
 20
65.6618
 30
0.0
 10
8.6317
 20
65.7394
 30
0.0
 10
8.7811
 20
65.7912
 30
0.0
 10
8.7811
 20
65.7912
 30
0.0
 10
8.931600000000001
 20
65.8429
 30
0.0
 10
9.0868
 20
65.86880000000001
 30
0.0
 10
9.2456
 20
65.86880000000001
 30
0.0
 10
9.2456
 20
65.86880000000001
 30
0.0
 10
9.631300000000001
 20
65.86880000000001
 30
0.0
 10
9.947600000000001
 20
65.7418
 30
0.0
 10
10.1957
 20
65.48660000000001
 30
0.0
 10
10.1957
 20
65.48660000000001
 30
0.0
 10
10.4439
 20
65.23140000000001
 30
0.0
 10
10.5685
 20
64.8822
 30
0.0
 10
10.5685
 20
64.4389
 30
0.0
 10
10.5685
 20
64.4389
 30
0.0
 10
10.5685
 20
64.05080000000001
 30
0.0
 10
10.4827
 20
63.6933
 30
0.0
 10
10.3133
 20
63.3652
 30
0.0
 10
10.3133
 20
63.3652
 30
0.0
 10
10.1428
 20
63.0383
 30
0.0
 10
9.908800000000001
 20
62.7867
 30
0.0
 10
9.612500000000001
 20
62.6115
 30
0.0
 10
9.612500000000001
 20
62.6115
 30
0.0
 10
9.315000000000001
 20
62.43510000000001
 30
0.0
 10
8.9939
 20
62.3481
 30
0.0
 10
8.6494
 20
62.3481
 30
0.0
 10
8.6494
 20
62.3481
 30
0.0
 10
8.360100000000001
 20
62.3481
 30
0.0
 10
8.1037
 20
62.4127
 30
0.0
 10
7.8803
 20
62.5444
 30
0.0
 10
7.8803
 20
62.5444
 30
0.0
 10
7.6581
 20
62.675
 30
0.0
 10
7.4911
 20
62.8549
 30
0.0
 10
7.3794
 20
63.0854
 30
0.0
 10
7.3794
 20
63.0854
 30
0.0
 10
7.267700000000001
 20
63.3147
 30
0.0
 10
7.212400000000001
 20
63.544
 30
0.0
 10
7.212400000000001
 20
63.7745
 30
0.0
 10
7.212400000000001
 20
63.7745
 30
0.0
 10
7.212400000000001
 20
63.79680000000001
 30
0.0
 10
7.213600000000001
 20
63.8309
 30
0.0
 10
7.2159
 20
63.8779
 30
0.0
  0
SPLINE
  5
32
330
1F
100
AcDbEntity
  8
Ebene 1
 62
   250
100
AcDbSpline
210
0.0
220
0.0
230
1.0
 70
    11
 71
     3
 72
    52
 73
    48
 74
     0
 42
0.0000000001
 43
0.0000000001
 40
0.0
 40
0.0
 40
0.0
 40
0.0
 40
0.0833333333333333
 40
0.0833333333333333
 40
0.0833333333333333
 40
0.0833333333333333
 40
0.1666666666666667
 40
0.1666666666666667
 40
0.1666666666666667
 40
0.1666666666666667
 40
0.25
 40
0.25
 40
0.25
 40
0.25
 40
0.3333333333333333
 40
0.3333333333333333
 40
0.3333333333333333
 40
0.3333333333333333
 40
0.4166666666666666
 40
0.4166666666666666
 40
0.4166666666666666
 40
0.4166666666666666
 40
0.4999999999999999
 40
0.4999999999999999
 40
0.4999999999999999
 40
0.4999999999999999
 40
0.5833333333333333
 40
0.5833333333333333
 40
0.5833333333333333
 40
0.5833333333333333
 40
0.6666666666666666
 40
0.6666666666666666
 40
0.6666666666666666
 40
0.6666666666666666
 40
0.75
 40
0.75
 40
0.75
 40
0.75
 40
0.8333333333333334
 40
0.8333333333333334
 40
0.8333333333333334
 40
0.8333333333333334
 40
0.9166666666666667
 40
0.9166666666666667
 40
0.9166666666666667
 40
0.9166666666666667
 40
1.0
 40
1.0
 40
1.0
 40
1.0
 10
11.1471
 20
64.0908
 30
0.0
 10
11.1471
 20
64.51770000000001
 30
0.0
 10
11.2106
 20
64.95270000000001
 30
0.0
 10
11.3376
 20
65.39370000000001
 30
0.0
 10
11.3376
 20
65.39370000000001
 30
0.0
 10
11.4657
 20
65.8347
 30
0.0
 10
11.6069
 20
66.1863
 30
0.0
 10
11.7633
 20
66.4509
 30
0.0
 10
11.7633
 20
66.4509
 30
0.0
 10
11.9197
 20
66.71550000000001
 30
0.0
 10
12.0819
 20
66.9213
 30
0.0
 10
12.2489
 20
67.0706
 30
0.0
 10
12.2489
 20
67.0706
 30
0.0
 10
12.4171
 20
67.21990000000001
 30
0.0
 10
12.5817
 20
67.3305
 30
0.0
 10
12.744
 20
67.3999
 30
0.0
 10
12.744
 20
67.3999
 30
0.0
 10
12.9051
 20
67.4704
 30
0.0
 10
13.085
 20
67.5057
 30
0.0
 10
13.2826
 20
67.5057
 30
0.0
 10
13.2826
 20
67.5057
 30
0.0
 10
13.6683
 20
67.5057
 30
0.0
 10
13.9905
 20
67.36110000000001
 30
0.0
 10
14.2492
 20
67.0741
 30
0.0
 10
14.2492
 20
67.0741
 30
0.0
 10
14.5079
 20
66.7872
 30
0.0
 10
14.6372
 20
66.3733
 30
0.0
 10
14.6372
 20
65.83120000000001
 30
0.0
 10
14.6372
 20
65.83120000000001
 30
0.0
 10
14.6372
 20
65.2726
 30
0.0
 10
14.5467
 20
64.71990000000001
 30
0.0
 10
14.368
 20
64.1743
 30
0.0
 10
14.368
 20
64.1743
 30
0.0
 10
14.1563
 20
63.52630000000001
 30
0.0
 10
13.8623
 20
63.0407
 30
0.0
 10
13.486
 20
62.7161
 30
0.0
 10
13.486
 20
62.7161
 30
0.0
 10
13.1967
 20
62.47040000000001
 30
0.0
 10
12.8675
 20
62.3481
 30
0.0
 10
12.497
 20
62.3481
 30
0.0
 10
12.497
 20
62.3481
 30
0.0
 10
12.1184
 20
62.3481
 30
0.0
 10
11.7985
 20
62.4962
 30
0.0
 10
11.5375
 20
62.7937
 30
0.0
 10
11.5375
 20
62.7937
 30
0.0
 10
11.2776
 20
63.0912
 30
0.0
 10
11.1471
 20
63.524
 30
0.0
 10
11.1471
 20
64.0908
 30
0.0
  0
SPLINE
  5
33
330
1F
100
AcDbEntity
  8
Ebene 1
 62
   250
100
AcDbSpline
210
0.0
220
0.0
230
1.0
 70
    11
 71
     3
 72
    48
 73
    44
 74
     0
 42
0.0000000001
 43
0.0000000001
 40
0.0
 40
0.0
 40
0.0
 40
0.0
 40
0.0909090909090909
 40
0.0909090909090909
 40
0.0909090909090909
 40
0.0909090909090909
 40
0.1818181818181818
 40
0.1818181818181818
 40
0.1818181818181818
 40
0.1818181818181818
 40
0.2727272727272727
 40
0.2727272727272727
 40
0.2727272727272727
 40
0.2727272727272727
 40
0.3636363636363637
 40
0.3636363636363637
 40
0.3636363636363637
 40
0.3636363636363637
 40
0.4545454545454546
 40
0.4545454545454546
 40
0.4545454545454546
 40
0.4545454545454546
 40
0.5454545454545455
 40
0.5454545454545455
 40
0.5454545454545455
 40
0.5454545454545455
 40
0.6363636363636365
 40
0.6363636363636365
 40
0.6363636363636365
 40
0.6363636363636365
 40
0.7272727272727274
 40
0.7272727272727274
 40
0.7272727272727274
 40
0.7272727272727274
 40
0.8181818181818183
 40
0.8181818181818183
 40
0.8181818181818183
 40
0.8181818181818183
 40
0.9090909090909093
 40
0.9090909090909093
 40
0.9090909090909093
 40
0.9090909090909093
 40
1.0
 40
1.0
 40
1.0
 40
1.0
 10
11.7503
 20
63.932
 30
0.0
 10
11.7503
 20
63.62280000000001
 30
0.0
 10
11.8009
 20
63.38050000000001
 30
0.0
 10
11.9044
 20
63.2053
 30
0.0
 10
11.9044
 20
63.2053
 30
0.0
 10
12.0443
 20
62.96420000000001
 30
0.0
 10
12.2524
 20
62.8443
 30
0.0
 10
12.5288
 20
62.8443
 30
0.0
 10
12.5288
 20
62.8443
 30
0.0
 10
12.7699
 20
62.8443
 30
0.0
 10
12.9886
 20
62.9525
 30
0.0
 10
13.1861
 20
63.17120000000001
 30
0.0
 10
13.1861
 20
63.17120000000001
 30
0.0
 10
13.4707
 20
63.4793
 30
0.0
 10
13.6859
 20
63.9297
 30
0.0
 10
13.8294
 20
64.5235
 30
0.0
 10
13.8294
 20
64.5235
 30
0.0
 10
13.9728
 20
65.1174
 30
0.0
 10
14.0446
 20
65.6019
 30
0.0
 10
14.0446
 20
65.97930000000001
 30
0.0
 10
14.0446
 20
65.97930000000001
 30
0.0
 10
14.0446
 20
66.3415
 30
0.0
 10
13.9752
 20
66.60380000000001
 30
0.0
 10
13.8353
 20
66.7649
 30
0.0
 10
13.8353
 20
66.7649
 30
0.0
 10
13.6965
 20
66.92480000000001
 30
0.0
 10
13.5142
 20
67.0059
 30
0.0
 10
13.2861
 20
67.0059
 30
0.0
 10
13.2861
 20
67.0059
 30
0.0
 10
13.1215
 20
67.0059
 30
0.0
 10
12.9662
 20
66.9636
 30
0.0
 10
12.8228
 20
66.87780000000001
 30
0.0
 10
12.8228
 20
66.87780000000001
 30
0.0
 10
12.6793
 20
66.79310000000001
 30
0.0
 10
12.5417
 20
66.6473
 30
0.0
 10
12.4112
 20
66.44030000000001
 30
0.0
 10
12.4112
 20
66.44030000000001
 30
0.0
 10
12.2254
 20
66.14870000000001
 30
0.0
 10
12.0631
 20
65.7124
 30
0.0
 10
11.9255
 20
65.1315
 30
0.0
 10
11.9255
 20
65.1315
 30
0.0
 10
11.8079
 20
64.6352
 30
0.0
 10
11.7503
 20
64.2354
 30
0.0
 10
11.7503
 20
63.932
 30
0.0
  0
SPLINE
  5
34
330
1F
100
AcDbEntity
  8
Ebene 1
 62
   250
100
AcDbSpline
210
0.0
220
0.0
230
1.0
 70
    11
 71
     3
 72
    40
 73
    36
 74
     0
 42
0.0000000001
 43
0.0000000001
 40
0.0
 40
0.0
 40
0.0
 40
0.0
 40
0.1111111111111111
 40
0.1111111111111111
 40
0.1111111111111111
 40
0.1111111111111111
 40
0.2222222222222222
 40
0.2222222222222222
 40
0.2222222222222222
 40
0.2222222222222222
 40
0.3333333333333333
 40
0.3333333333333333
 40
0.3333333333333333
 40
0.3333333333333333
 40
0.4444444444444444
 40
0.4444444444444444
 40
0.4444444444444444
 40
0.4444444444444444
 40
0.5555555555555556
 40
0.5555555555555556
 40
0.5555555555555556
 40
0.5555555555555556
 40
0.6666666666666667
 40
0.6666666666666667
 40
0.6666666666666667
 40
0.6666666666666667
 40
0.7777777777777779
 40
0.7777777777777779
 40
0.7777777777777779
 40
0.7777777777777779
 40
0.8888888888888891
 40
0.8888888888888891
 40
0.8888888888888891
 40
0.8888888888888891
 40
1.0
 40
1.0
 40
1.0
 40
1.0
 10
42.15320000000001
 20
-5.192
 30
0.0
 10
42.15320000000001
 20
-5.192
 30
0.0
 10
38.3396
 20
-4.392300000000001
 30
0.0
 10
38.3396
 20
-4.392300000000001
 30
0.0
 10
38.3396
 20
-4.392300000000001
 30
0.0
 10
38.6101
 20
-4.7369
 30
0.0
 10
38.8277
 20
-5.2214
 30
0.0
 10
38.9911
 20
-5.845800000000001
 30
0.0
 10
38.9911
 20
-5.845800000000001
 30
0.0
 10
38.9911
 20
-5.845800000000001
 30
0.0
 10
38.4255
 20
-5.7294
 30
0.0
 10
38.4255
 20
-5.7294
 30
0.0
 10
38.4255
 20
-5.7294
 30
0.0
 10
38.302
 20
-5.4189
 30
0.0
 10
38.13970000000001
 20
-5.1132
 30
0.0
 10
37.93980000000001
 20
-4.8109
 30
0.0
 10
37.93980000000001
 20
-4.8109
 30
0.0
 10
37.7399
 20
-4.5087
 30
0.0
 10
37.5659
 20
-4.281800000000001
 30
0.0
 10
37.4165
 20
-4.130100000000001
 30
0.0
 10
37.4165
 20
-4.130100000000001
 30
0.0
 10
37.3248
 20
-4.0384
 30
0.0
 10
37.2131
 20
-3.9513
 30
0.0
 10
37.0826
 20
-3.869
 30
0.0
 10
37.0826
 20
-3.869
 30
0.0
 10
37.0826
 20
-3.869
 30
0.0
 10
37.0826
 20
-3.5068
 30
0.0
 10
37.0826
 20
-3.5068
 30
0.0
 10
37.0826
 20
-3.5068
 30
0.0
 10
37.0826
 20
-3.5068
 30
0.0
 10
42.15320000000001
 20
-4.564
 30
0.0
 10
42.15320000000001
 20
-4.564
 30
0.0
 10
42.15320000000001
 20
-4.564
 30
0.0
 10
42.15320000000001
 20
-4.564
 30
0.0
 10
42.15320000000001
 20
-5.192
 30
0.0
 10
42.15320000000001
 20
-5.192
 30
0.0
  0
SPLINE
  5
35
330
1F
100
AcDbEntity
  8
Ebene 1
 62
   250
100
AcDbSpline
210
0.0
220
0.0
230
1.0
 70
    11
 71
     3
 72
   120
 73
   116
 74
     0
 42
0.0000000001
 43
0.0000000001
 40
0.0
 40
0.0
 40
0.0
 40
0.0
 40
0.0344827586206897
 40
0.0344827586206897
 40
0.0344827586206897
 40
0.0344827586206897
 40
0.0689655172413793
 40
0.0689655172413793
 40
0.0689655172413793
 40
0.0689655172413793
 40
0.103448275862069
 40
0.103448275862069
 40
0.103448275862069
 40
0.103448275862069
 40
0.1379310344827586
 40
0.1379310344827586
 40
0.1379310344827586
 40
0.1379310344827586
 40
0.1724137931034483
 40
0.1724137931034483
 40
0.1724137931034483
 40
0.1724137931034483
 40
0.206896551724138
 40
0.206896551724138
 40
0.206896551724138
 40
0.206896551724138
 40
0.2413793103448276
 40
0.2413793103448276
 40
0.2413793103448276
 40
0.2413793103448276
 40
0.2758620689655173
 40
0.2758620689655173
 40
0.2758620689655173
 40
0.2758620689655173
 40
0.310344827586207
 40
0.310344827586207
 40
0.310344827586207
 40
0.310344827586207
 40
0.3448275862068966
 40
0.3448275862068966
 40
0.3448275862068966
 40
0.3448275862068966
 40
0.3793103448275863
 40
0.3793103448275863
 40
0.3793103448275863
 40
0.3793103448275863
 40
0.413793103448276
 40
0.413793103448276
 40
0.413793103448276
 40
0.413793103448276
 40
0.4482758620689656
 40
0.4482758620689656
 40
0.4482758620689656
 40
0.4482758620689656
 40
0.4827586206896553
 40
0.4827586206896553
 40
0.4827586206896553
 40
0.4827586206896553
 40
0.517241379310345
 40
0.517241379310345
 40
0.517241379310345
 40
0.517241379310345
 40
0.5517241379310346
 40
0.5517241379310346
 40
0.5517241379310346
 40
0.5517241379310346
 40
0.5862068965517242
 40
0.5862068965517242
 40
0.5862068965517242
 40
0.5862068965517242
 40
0.6206896551724138
 40
0.6206896551724138
 40
0.6206896551724138
 40
0.6206896551724138
 40
0.6551724137931034
 40
0.6551724137931034
 40
0.6551724137931034
 40
0.6551724137931034
 40
0.689655172413793
 40
0.689655172413793
 40
0.689655172413793
 40
0.689655172413793
 40
0.7241379310344827
 40
0.7241379310344827
 40
0.7241379310344827
 40
0.7241379310344827
 40
0.7586206896551723
 40
0.7586206896551723
 40
0.7586206896551723
 40
0.7586206896551723
 40
0.7931034482758619
 40
0.7931034482758619
 40
0.7931034482758619
 40
0.7931034482758619
 40
0.8275862068965515
 40
0.8275862068965515
 40
0.8275862068965515
 40
0.8275862068965515
 40
0.8620689655172411
 40
0.8620689655172411
 40
0.8620689655172411
 40
0.8620689655172411
 40
0.8965517241379307
 40
0.8965517241379307
 40
0.8965517241379307
 40
0.8965517241379307
 40
0.9310344827586203
 40
0.9310344827586203
 40
0.9310344827586203
 40
0.9310344827586203
 40
0.9655172413793099
 40
0.9655172413793099
 40
0.9655172413793099
 40
0.9655172413793099
 40
1.0
 40
1.0
 40
1.0
 40
1.0
 10
40.7092
 20
-2.4732
 30
0.0
 10
40.7092
 20
-2.4732
 30
0.0
 10
40.648
 20
-1.8394
 30
0.0
 10
40.648
 20
-1.8394
 30
0.0
 10
40.648
 20
-1.8394
 30
0.0
 10
40.7374
 20
-1.8441
 30
0.0
 10
40.7915
 20
-1.8464
 30
0.0
 10
40.8091
 20
-1.8464
 30
0.0
 10
40.8091
 20
-1.8464
 30
0.0
 10
40.9608
 20
-1.8464
 30
0.0
 10
41.1137
 20
-1.8076
 30
0.0
 10
41.26770000000001
 20
-1.7312
 30
0.0
 10
41.26770000000001
 20
-1.7312
 30
0.0
 10
41.42180000000001
 20
-1.6536
 30
0.0
 10
41.5394
 20
-1.5489
 30
0.0
 10
41.6205
 20
-1.4172
 30
0.0
 10
41.6205
 20
-1.4172
 30
0.0
 10
41.7028
 20
-1.2855
 30
0.0
 10
41.7428
 20
-1.1456
 30
0.0
 10
41.7428
 20
-0.9986
 30
0.0
 10
41.7428
 20
-0.9986
 30
0.0
 10
41.7428
 20
-0.8057000000000001
 30
0.0
 10
41.6769
 20
-0.6093000000000001
 30
0.0
 10
41.5429
 20
-0.4094
 30
0.0
 10
41.5429
 20
-0.4094
 30
0.0
 10
41.41
 20
-0.2095
 30
0.0
 10
41.216
 20
-0.0484
 30
0.0
 10
40.9608
 20
0.0762
 30
0.0
 10
40.9608
 20
0.0762
 30
0.0
 10
40.7068
 20
0.1997
 30
0.0
 10
40.454
 20
0.262
 30
0.0
 10
40.20350000000001
 20
0.262
 30
0.0
 10
40.20350000000001
 20
0.262
 30
0.0
 10
39.9213
 20
0.262
 30
0.0
 10
39.6943
 20
0.1785
 30
0.0
 10
39.525
 20
0.0127
 30
0.0
 10
39.525
 20
0.0127
 30
0.0
 10
39.3545
 20
-0.1542
 30
0.0
 10
39.2698
 20
-0.373
 30
0.0
 10
39.2698
 20
-0.6434000000000001
 30
0.0
 10
39.2698
 20
-0.6434000000000001
 30
0.0
 10
39.2698
 20
-0.8257
 30
0.0
 10
39.31330000000001
 20
-0.9974000000000001
 30
0.0
 10
39.4003
 20
-1.1585
 30
0.0
 10
39.4003
 20
-1.1585
 30
0.0
 10
39.4874
 20
-1.3208
 30
0.0
 10
39.6191
 20
-1.4713
 30
0.0
 10
39.7931
 20
-1.6124
 30
0.0
 10
39.7931
 20
-1.6124
 30
0.0
 10
39.7931
 20
-1.6124
 30
0.0
 10
39.75550000000001
 20
-2.1569
 30
0.0
 10
39.75550000000001
 20
-2.1569
 30
0.0
 10
39.75550000000001
 20
-2.1569
 30
0.0
 10
39.75550000000001
 20
-2.1569
 30
0.0
 10
37.1719
 20
-1.3949
 30
0.0
 10
37.1719
 20
-1.3949
 30
0.0
 10
37.1719
 20
-1.3949
 30
0.0
 10
37.1719
 20
-1.3949
 30
0.0
 10
37.1719
 20
1.0723
 30
0.0
 10
37.1719
 20
1.0723
 30
0.0
 10
37.1719
 20
1.0723
 30
0.0
 10
37.1719
 20
1.0723
 30
0.0
 10
37.7434
 20
0.9511000000000001
 30
0.0
 10
37.7434
 20
0.9511000000000001
 30
0.0
 10
37.7434
 20
0.9511000000000001
 30
0.0
 10
37.7434
 20
0.9511000000000001
 30
0.0
 10
37.7434
 20
-0.9680000000000001
 30
0.0
 10
37.7434
 20
-0.9680000000000001
 30
0.0
 10
37.7434
 20
-0.9680000000000001
 30
0.0
 10
37.7434
 20
-0.9680000000000001
 30
0.0
 10
39.0287
 20
-1.3466
 30
0.0
 10
39.0287
 20
-1.3466
 30
0.0
 10
39.0287
 20
-1.3466
 30
0.0
 10
38.9253
 20
-1.2044
 30
0.0
 10
38.8477
 20
-1.0574
 30
0.0
 10
38.7959
 20
-0.908
 30
0.0
 10
38.7959
 20
-0.908
 30
0.0
 10
38.7442
 20
-0.7575000000000001
 30
0.0
 10
38.7183
 20
-0.6023000000000001
 30
0.0
 10
38.7183
 20
-0.4435
 30
0.0
 10
38.7183
 20
-0.4435
 30
0.0
 10
38.7183
 20
-0.0578
 30
0.0
 10
38.8453
 20
0.2585
 30
0.0
 10
39.1005
 20
0.5066000000000001
 30
0.0
 10
39.1005
 20
0.5066000000000001
 30
0.0
 10
39.3557
 20
0.7548
 30
0.0
 10
39.7049
 20
0.8794000000000001
 30
0.0
 10
40.1482
 20
0.8794000000000001
 30
0.0
 10
40.1482
 20
0.8794000000000001
 30
0.0
 10
40.5363
 20
0.8794000000000001
 30
0.0
 10
40.8938
 20
0.7936000000000001
 30
0.0
 10
41.22190000000001
 20
0.6242
 30
0.0
 10
41.22190000000001
 20
0.6242
 30
0.0
 10
41.5488
 20
0.4537000000000001
 30
0.0
 10
41.8004
 20
0.2197
 30
0.0
 10
41.9756
 20
-0.0766
 30
0.0
 10
41.9756
 20
-0.0766
 30
0.0
 10
42.152
 20
-0.3741
 30
0.0
 10
42.239
 20
-0.6952
 30
0.0
 10
42.239
 20
-1.0397
 30
0.0
 10
42.239
 20
-1.0397
 30
0.0
 10
42.239
 20
-1.329
 30
0.0
 10
42.1744
 20
-1.5854
 30
0.0
 10
42.0427
 20
-1.8088
 30
0.0
 10
42.0427
 20
-1.8088
 30
0.0
 10
41.9121
 20
-2.031
 30
0.0
 10
41.7322
 20
-2.198
 30
0.0
 10
41.5017
 20
-2.3097
 30
0.0
 10
41.5017
 20
-2.3097
 30
0.0
 10
41.27240000000001
 20
-2.4214
 30
0.0
 10
41.0431
 20
-2.4767
 30
0.0
 10
40.8126
 20
-2.4767
 30
0.0
 10
40.8126
 20
-2.4767
 30
0.0
 10
40.7903
 20
-2.4767
 30
0.0
 10
40.7562
 20
-2.4755
 30
0.0
 10
40.7092
 20
-2.4732
 30
0.0
  0
SPLINE
  5
36
330
1F
100
AcDbEntity
  8
Ebene 1
 62
   250
100
AcDbSpline
210
0.0
220
0.0
230
1.0
 70
    11
 71
     3
 72
    52
 73
    48
 74
     0
 42
0.0000000001
 43
0.0000000001
 40
0.0
 40
0.0
 40
0.0
 40
0.0
 40
0.0833333333333333
 40
0.0833333333333333
 40
0.0833333333333333
 40
0.0833333333333333
 40
0.1666666666666667
 40
0.1666666666666667
 40
0.1666666666666667
 40
0.1666666666666667
 40
0.25
 40
0.25
 40
0.25
 40
0.25
 40
0.3333333333333333
 40
0.3333333333333333
 40
0.3333333333333333
 40
0.3333333333333333
 40
0.4166666666666666
 40
0.4166666666666666
 40
0.4166666666666666
 40
0.4166666666666666
 40
0.4999999999999999
 40
0.4999999999999999
 40
0.4999999999999999
 40
0.4999999999999999
 40
0.5833333333333333
 40
0.5833333333333333
 40
0.5833333333333333
 40
0.5833333333333333
 40
0.6666666666666666
 40
0.6666666666666666
 40
0.6666666666666666
 40
0.6666666666666666
 40
0.75
 40
0.75
 40
0.75
 40
0.75
 40
0.8333333333333334
 40
0.8333333333333334
 40
0.8333333333333334
 40
0.8333333333333334
 40
0.9166666666666667
 40
0.9166666666666667
 40
0.9166666666666667
 40
0.9166666666666667
 40
1.0
 40
1.0
 40
1.0
 40
1.0
 10
40.49630000000001
 20
1.458
 30
0.0
 10
40.0694
 20
1.458
 30
0.0
 10
39.6344
 20
1.5215
 30
0.0
 10
39.1934
 20
1.6485
 30
0.0
 10
39.1934
 20
1.6485
 30
0.0
 10
38.7524
 20
1.7766
 30
0.0
 10
38.4008
 20
1.9178
 30
0.0
 10
38.1362
 20
2.0742
 30
0.0
 10
38.1362
 20
2.0742
 30
0.0
 10
37.8716
 20
2.2306
 30
0.0
 10
37.6658
 20
2.3928
 30
0.0
 10
37.5165
 20
2.5598
 30
0.0
 10
37.5165
 20
2.5598
 30
0.0
 10
37.3672
 20
2.728
 30
0.0
 10
37.2566
 20
2.8926
 30
0.0
 10
37.1872
 20
3.0549
 30
0.0
 10
37.1872
 20
3.0549
 30
0.0
 10
37.1167
 20
3.216
 30
0.0
 10
37.0826
 20
3.3959
 30
0.0
 10
37.0826
 20
3.5935
 30
0.0
 10
37.0826
 20
3.5935
 30
0.0
 10
37.0826
 20
3.9792
 30
0.0
 10
37.226
 20
4.3014
 30
0.0
 10
37.51300000000001
 20
4.5601
 30
0.0
 10
37.51300000000001
 20
4.5601
 30
0.0
 10
37.7999
 20
4.8188
 30
0.0
 10
38.2138
 20
4.9481
 30
0.0
 10
38.7559
 20
4.9481
 30
0.0
 10
38.7559
 20
4.9481
 30
0.0
 10
39.3145
 20
4.9481
 30
0.0
 10
39.8672
 20
4.857600000000001
 30
0.0
 10
40.414
 20
4.678900000000001
 30
0.0
 10
40.414
 20
4.678900000000001
 30
0.0
 10
41.0608
 20
4.4672
 30
0.0
 10
41.5464
 20
4.173200000000001
 30
0.0
 10
41.871
 20
3.7969
 30
0.0
 10
41.871
 20
3.7969
 30
0.0
 10
42.1167
 20
3.5076
 30
0.0
 10
42.239
 20
3.1784
 30
0.0
 10
42.239
 20
2.8079
 30
0.0
 10
42.239
 20
2.8079
 30
0.0
 10
42.239
 20
2.4293
 30
0.0
 10
42.09090000000001
 20
2.1094
 30
0.0
 10
41.79340000000001
 20
1.8484
 30
0.0
 10
41.79340000000001
 20
1.8484
 30
0.0
 10
41.4959
 20
1.5885
 30
0.0
 10
41.0631
 20
1.458
 30
0.0
 10
40.49630000000001
 20
1.458
 30
0.0
  0
SPLINE
  5
37
330
1F
100
AcDbEntity
  8
Ebene 1
 62
   250
100
AcDbSpline
210
0.0
220
0.0
230
1.0
 70
    11
 71
     3
 72
    48
 73
    44
 74
     0
 42
0.0000000001
 43
0.0000000001
 40
0.0
 40
0.0
 40
0.0
 40
0.0
 40
0.0909090909090909
 40
0.0909090909090909
 40
0.0909090909090909
 40
0.0909090909090909
 40
0.1818181818181818
 40
0.1818181818181818
 40
0.1818181818181818
 40
0.1818181818181818
 40
0.2727272727272727
 40
0.2727272727272727
 40
0.2727272727272727
 40
0.2727272727272727
 40
0.3636363636363637
 40
0.3636363636363637
 40
0.3636363636363637
 40
0.3636363636363637
 40
0.4545454545454546
 40
0.4545454545454546
 40
0.4545454545454546
 40
0.4545454545454546
 40
0.5454545454545455
 40
0.5454545454545455
 40
0.5454545454545455
 40
0.5454545454545455
 40
0.6363636363636365
 40
0.6363636363636365
 40
0.6363636363636365
 40
0.6363636363636365
 40
0.7272727272727274
 40
0.7272727272727274
 40
0.7272727272727274
 40
0.7272727272727274
 40
0.8181818181818183
 40
0.8181818181818183
 40
0.8181818181818183
 40
0.8181818181818183
 40
0.9090909090909093
 40
0.9090909090909093
 40
0.9090909090909093
 40
0.9090909090909093
 40
1.0
 40
1.0
 40
1.0
 40
1.0
 10
40.6551
 20
2.0612
 30
0.0
 10
40.9643
 20
2.0612
 30
0.0
 10
41.2066
 20
2.1118
 30
0.0
 10
41.38180000000001
 20
2.2153
 30
0.0
 10
41.38180000000001
 20
2.2153
 30
0.0
 10
41.6229
 20
2.3552
 30
0.0
 10
41.7428
 20
2.5633
 30
0.0
 10
41.7428
 20
2.8397
 30
0.0
 10
41.7428
 20
2.8397
 30
0.0
 10
41.7428
 20
3.0808
 30
0.0
 10
41.6346
 20
3.2995
 30
0.0
 10
41.4159
 20
3.497
 30
0.0
 10
41.4159
 20
3.497
 30
0.0
 10
41.10780000000001
 20
3.7816
 30
0.0
 10
40.6574
 20
3.9968
 30
0.0
 10
40.0636
 20
4.1403
 30
0.0
 10
40.0636
 20
4.1403
 30
0.0
 10
39.4697
 20
4.283700000000001
 30
0.0
 10
38.9852
 20
4.3555
 30
0.0
 10
38.60780000000001
 20
4.3555
 30
0.0
 10
38.60780000000001
 20
4.3555
 30
0.0
 10
38.2456
 20
4.3555
 30
0.0
 10
37.9833
 20
4.2861
 30
0.0
 10
37.8222
 20
4.1462
 30
0.0
 10
37.8222
 20
4.1462
 30
0.0
 10
37.6623
 20
4.007400000000001
 30
0.0
 10
37.5812
 20
3.8251
 30
0.0
 10
37.5812
 20
3.597
 30
0.0
 10
37.5812
 20
3.597
 30
0.0
 10
37.5812
 20
3.4324
 30
0.0
 10
37.6235
 20
3.2771
 30
0.0
 10
37.7093
 20
3.1337
 30
0.0
 10
37.7093
 20
3.1337
 30
0.0
 10
37.794
 20
2.9902
 30
0.0
 10
37.93980000000001
 20
2.8526
 30
0.0
 10
38.1468
 20
2.7221
 30
0.0
 10
38.1468
 20
2.7221
 30
0.0
 10
38.4384
 20
2.5363
 30
0.0
 10
38.8747
 20
2.374
 30
0.0
 10
39.4556
 20
2.2364
 30
0.0
 10
39.4556
 20
2.2364
 30
0.0
 10
39.9519
 20
2.1188
 30
0.0
 10
40.3517
 20
2.0612
 30
0.0
 10
40.6551
 20
2.0612
 30
0.0
  0
SPLINE
  5
38
330
1F
100
AcDbEntity
  8
Ebene 1
 62
   250
100
AcDbSpline
210
0.0
220
0.0
230
1.0
 70
    11
 71
     3
 72
    52
 73
    48
 74
     0
 42
0.0000000001
 43
0.0000000001
 40
0.0
 40
0.0
 40
0.0
 40
0.0
 40
0.0833333333333333
 40
0.0833333333333333
 40
0.0833333333333333
 40
0.0833333333333333
 40
0.1666666666666667
 40
0.1666666666666667
 40
0.1666666666666667
 40
0.1666666666666667
 40
0.25
 40
0.25
 40
0.25
 40
0.25
 40
0.3333333333333333
 40
0.3333333333333333
 40
0.3333333333333333
 40
0.3333333333333333
 40
0.4166666666666666
 40
0.4166666666666666
 40
0.4166666666666666
 40
0.4166666666666666
 40
0.4999999999999999
 40
0.4999999999999999
 40
0.4999999999999999
 40
0.4999999999999999
 40
0.5833333333333333
 40
0.5833333333333333
 40
0.5833333333333333
 40
0.5833333333333333
 40
0.6666666666666666
 40
0.6666666666666666
 40
0.6666666666666666
 40
0.6666666666666666
 40
0.75
 40
0.75
 40
0.75
 40
0.75
 40
0.8333333333333334
 40
0.8333333333333334
 40
0.8333333333333334
 40
0.8333333333333334
 40
0.9166666666666667
 40
0.9166666666666667
 40
0.9166666666666667
 40
0.9166666666666667
 40
1.0
 40
1.0
 40
1.0
 40
1.0
 10
40.49630000000001
 20
5.3821
 30
0.0
 10
40.0694
 20
5.3821
 30
0.0
 10
39.6344
 20
5.445600000000001
 30
0.0
 10
39.1934
 20
5.5726
 30
0.0
 10
39.1934
 20
5.5726
 30
0.0
 10
38.7524
 20
5.7007
 30
0.0
 10
38.4008
 20
5.8419
 30
0.0
 10
38.1362
 20
5.9983
 30
0.0
 10
38.1362
 20
5.9983
 30
0.0
 10
37.8716
 20
6.1547
 30
0.0
 10
37.6658
 20
6.3169
 30
0.0
 10
37.5165
 20
6.4839
 30
0.0
 10
37.5165
 20
6.4839
 30
0.0
 10
37.3672
 20
6.6521
 30
0.0
 10
37.2566
 20
6.8167
 30
0.0
 10
37.1872
 20
6.979
 30
0.0
 10
37.1872
 20
6.979
 30
0.0
 10
37.1167
 20
7.1401
 30
0.0
 10
37.0826
 20
7.32
 30
0.0
 10
37.0826
 20
7.517600000000001
 30
0.0
 10
37.0826
 20
7.517600000000001
 30
0.0
 10
37.0826
 20
7.903300000000001
 30
0.0
 10
37.226
 20
8.2255
 30
0.0
 10
37.51300000000001
 20
8.4842
 30
0.0
 10
37.51300000000001
 20
8.4842
 30
0.0
 10
37.7999
 20
8.742900000000001
 30
0.0
 10
38.2138
 20
8.872200000000001
 30
0.0
 10
38.7559
 20
8.872200000000001
 30
0.0
 10
38.7559
 20
8.872200000000001
 30
0.0
 10
39.3145
 20
8.872200000000001
 30
0.0
 10
39.8672
 20
8.781700000000001
 30
0.0
 10
40.414
 20
8.603
 30
0.0
 10
40.414
 20
8.603
 30
0.0
 10
41.0608
 20
8.391300000000001
 30
0.0
 10
41.5464
 20
8.097300000000001
 30
0.0
 10
41.871
 20
7.721
 30
0.0
 10
41.871
 20
7.721
 30
0.0
 10
42.1167
 20
7.4317
 30
0.0
 10
42.239
 20
7.1025
 30
0.0
 10
42.239
 20
6.732
 30
0.0
 10
42.239
 20
6.732
 30
0.0
 10
42.239
 20
6.353400000000001
 30
0.0
 10
42.09090000000001
 20
6.0335
 30
0.0
 10
41.79340000000001
 20
5.7725
 30
0.0
 10
41.79340000000001
 20
5.7725
 30
0.0
 10
41.4959
 20
5.5126
 30
0.0
 10
41.0631
 20
5.3821
 30
0.0
 10
40.49630000000001
 20
5.3821
 30
0.0
  0
SPLINE
  5
39
330
1F
100
AcDbEntity
  8
Ebene 1
 62
   250
100
AcDbSpline
210
0.0
220
0.0
230
1.0
 70
    11
 71
     3
 72
    48
 73
    44
 74
     0
 42
0.0000000001
 43
0.0000000001
 40
0.0
 40
0.0
 40
0.0
 40
0.0
 40
0.0909090909090909
 40
0.0909090909090909
 40
0.0909090909090909
 40
0.0909090909090909
 40
0.1818181818181818
 40
0.1818181818181818
 40
0.1818181818181818
 40
0.1818181818181818
 40
0.2727272727272727
 40
0.2727272727272727
 40
0.2727272727272727
 40
0.2727272727272727
 40
0.3636363636363637
 40
0.3636363636363637
 40
0.3636363636363637
 40
0.3636363636363637
 40
0.4545454545454546
 40
0.4545454545454546
 40
0.4545454545454546
 40
0.4545454545454546
 40
0.5454545454545455
 40
0.5454545454545455
 40
0.5454545454545455
 40
0.5454545454545455
 40
0.6363636363636365
 40
0.6363636363636365
 40
0.6363636363636365
 40
0.6363636363636365
 40
0.7272727272727274
 40
0.7272727272727274
 40
0.7272727272727274
 40
0.7272727272727274
 40
0.8181818181818183
 40
0.8181818181818183
 40
0.8181818181818183
 40
0.8181818181818183
 40
0.9090909090909093
 40
0.9090909090909093
 40
0.9090909090909093
 40
0.9090909090909093
 40
1.0
 40
1.0
 40
1.0
 40
1.0
 10
40.6551
 20
5.985300000000001
 30
0.0
 10
40.9643
 20
5.985300000000001
 30
0.0
 10
41.2066
 20
6.035900000000001
 30
0.0
 10
41.38180000000001
 20
6.1394
 30
0.0
 10
41.38180000000001
 20
6.1394
 30
0.0
 10
41.6229
 20
6.2793
 30
0.0
 10
41.7428
 20
6.4874
 30
0.0
 10
41.7428
 20
6.763800000000001
 30
0.0
 10
41.7428
 20
6.763800000000001
 30
0.0
 10
41.7428
 20
7.0049
 30
0.0
 10
41.6346
 20
7.2236
 30
0.0
 10
41.4159
 20
7.4211
 30
0.0
 10
41.4159
 20
7.4211
 30
0.0
 10
41.10780000000001
 20
7.7057
 30
0.0
 10
40.6574
 20
7.920900000000001
 30
0.0
 10
40.0636
 20
8.064400000000001
 30
0.0
 10
40.0636
 20
8.064400000000001
 30
0.0
 10
39.4697
 20
8.207800000000001
 30
0.0
 10
38.9852
 20
8.2796
 30
0.0
 10
38.60780000000001
 20
8.2796
 30
0.0
 10
38.60780000000001
 20
8.2796
 30
0.0
 10
38.2456
 20
8.2796
 30
0.0
 10
37.9833
 20
8.2102
 30
0.0
 10
37.8222
 20
8.0703
 30
0.0
 10
37.8222
 20
8.0703
 30
0.0
 10
37.6623
 20
7.931500000000001
 30
0.0
 10
37.5812
 20
7.7492
 30
0.0
 10
37.5812
 20
7.521100000000001
 30
0.0
 10
37.5812
 20
7.521100000000001
 30
0.0
 10
37.5812
 20
7.356500000000001
 30
0.0
 10
37.6235
 20
7.2012
 30
0.0
 10
37.7093
 20
7.0578
 30
0.0
 10
37.7093
 20
7.0578
 30
0.0
 10
37.794
 20
6.9143
 30
0.0
 10
37.93980000000001
 20
6.7767
 30
0.0
 10
38.1468
 20
6.6462
 30
0.0
 10
38.1468
 20
6.6462
 30
0.0
 10
38.4384
 20
6.4604
 30
0.0
 10
38.8747
 20
6.298100000000001
 30
0.0
 10
39.4556
 20
6.1605
 30
0.0
 10
39.4556
 20
6.1605
 30
0.0
 10
39.9519
 20
6.0429
 30
0.0
 10
40.3517
 20
5.985300000000001
 30
0.0
 10
40.6551
 20
5.985300000000001
 30
0.0
  0
SPLINE
  5
3A
330
1F
100
AcDbEntity
  8
Ebene 1
 62
   250
100
AcDbSpline
210
0.0
220
0.0
230
1.0
 70
    11
 71
     3
 72
    68
 73
    64
 74
     0
 42
0.0000000001
 43
0.0000000001
 40
0.0
 40
0.0
 40
0.0
 40
0.0
 40
0.0625
 40
0.0625
 40
0.0625
 40
0.0625
 40
0.125
 40
0.125
 40
0.125
 40
0.125
 40
0.1875
 40
0.1875
 40
0.1875
 40
0.1875
 40
0.25
 40
0.25
 40
0.25
 40
0.25
 40
0.3125
 40
0.3125
 40
0.3125
 40
0.3125
 40
0.375
 40
0.375
 40
0.375
 40
0.375
 40
0.4375
 40
0.4375
 40
0.4375
 40
0.4375
 40
0.5
 40
0.5
 40
0.5
 40
0.5
 40
0.5625
 40
0.5625
 40
0.5625
 40
0.5625
 40
0.625
 40
0.625
 40
0.625
 40
0.625
 40
0.6875
 40
0.6875
 40
0.6875
 40
0.6875
 40
0.75
 40
0.75
 40
0.75
 40
0.75
 40
0.8125
 40
0.8125
 40
0.8125
 40
0.8125
 40
0.875
 40
0.875
 40
0.875
 40
0.875
 40
0.9375
 40
0.9375
 40
0.9375
 40
0.9375
 40
1.0
 40
1.0
 40
1.0
 40
1.0
 10
72.97190000000001
 20
-60.98990000000001
 30
0.0
 10
72.7826
 20
-60.8864
 30
0.0
 10
72.64150000000001
 20
-60.75360000000001
 30
0.0
 10
72.54740000000001
 20
-60.5913
 30
0.0
 10
72.54740000000001
 20
-60.5913
 30
0.0
 10
72.4533
 20
-60.43020000000001
 30
0.0
 10
72.4063
 20
-60.2561
 30
0.0
 10
72.4063
 20
-60.0692
 30
0.0
 10
72.4063
 20
-60.0692
 30
0.0
 10
72.4063
 20
-59.7646
 30
0.0
 10
72.5168
 20
-59.4812
 30
0.0
 10
72.7367
 20
-59.2225
 30
0.0
 10
72.7367
 20
-59.2225
 30
0.0
 10
73.03070000000001
 20
-58.87090000000001
 30
0.0
 10
73.4294
 20
-58.69450000000001
 30
0.0
 10
73.9327
 20
-58.69450000000001
 30
0.0
 10
73.9327
 20
-58.69450000000001
 30
0.0
 10
74.37600000000001
 20
-58.69450000000001
 30
0.0
 10
74.7252
 20
-58.81440000000001
 30
0.0
 10
74.9804
 20
-59.052
 30
0.0
 10
74.9804
 20
-59.052
 30
0.0
 10
75.23440000000001
 20
-59.2895
 30
0.0
 10
75.3626
 20
-59.58000000000001
 30
0.0
 10
75.3626
 20
-59.9245
 30
0.0
 10
75.3626
 20
-59.9245
 30
0.0
 10
75.3626
 20
-60.17030000000001
 30
0.0
 10
75.2932
 20
-60.39250000000001
 30
0.0
 10
75.15560000000001
 20
-60.5901
 30
0.0
 10
75.15560000000001
 20
-60.5901
 30
0.0
 10
75.018
 20
-60.7877
 30
0.0
 10
74.8017
 20
-60.9452
 30
0.0
 10
74.5077
 20
-61.0617
 30
0.0
 10
74.5077
 20
-61.0617
 30
0.0
 10
74.70990000000001
 20
-61.1887
 30
0.0
 10
74.85460000000001
 20
-61.32270000000001
 30
0.0
 10
74.94160000000001
 20
-61.465
 30
0.0
 10
74.94160000000001
 20
-61.465
 30
0.0
 10
75.0545
 20
-61.6508
 30
0.0
 10
75.1109
 20
-61.86830000000001
 30
0.0
 10
75.1109
 20
-62.1165
 30
0.0
 10
75.1109
 20
-62.1165
 30
0.0
 10
75.1109
 20
-62.56800000000001
 30
0.0
 10
74.95100000000001
 20
-62.9714
 30
0.0
 10
74.63000000000001
 20
-63.32530000000001
 30
0.0
 10
74.63000000000001
 20
-63.32530000000001
 30
0.0
 10
74.31010000000001
 20
-63.67930000000001
 30
0.0
 10
73.88330000000001
 20
-63.85570000000001
 30
0.0
 10
73.3506
 20
-63.85570000000001
 30
0.0
 10
73.3506
 20
-63.85570000000001
 30
0.0
 10
72.92490000000001
 20
-63.85570000000001
 30
0.0
 10
72.5792
 20
-63.72510000000001
 30
0.0
 10
72.3099
 20
-63.46290000000001
 30
0.0
 10
72.3099
 20
-63.46290000000001
 30
0.0
 10
72.04180000000001
 20
-63.2019
 30
0.0
 10
71.90650000000001
 20
-62.8738
 30
0.0
 10
71.90650000000001
 20
-62.481
 30
0.0
 10
71.90650000000001
 20
-62.481
 30
0.0
 10
71.90650000000001
 20
-62.1118
 30
0.0
 10
72.0018
 20
-61.7943
 30
0.0
 10
72.1923
 20
-61.5285
 30
0.0
 10
72.1923
 20
-61.5285
 30
0.0
 10
72.3839
 20
-61.2639
 30
0.0
 10
72.64270000000001
 20
-61.084
 30
0.0
 10
72.97190000000001
 20
-60.98990000000001
 30
0.0
  0
SPLINE
  5
3B
330
1F
100
AcDbEntity
  8
Ebene 1
 62
   250
100
AcDbSpline
210
0.0
220
0.0
230
1.0
 70
    11
 71
     3
 72
    40
 73
    36
 74
     0
 42
0.0000000001
 43
0.0000000001
 40
0.0
 40
0.0
 40
0.0
 40
0.0
 40
0.1111111111111111
 40
0.1111111111111111
 40
0.1111111111111111
 40
0.1111111111111111
 40
0.2222222222222222
 40
0.2222222222222222
 40
0.2222222222222222
 40
0.2222222222222222
 40
0.3333333333333333
 40
0.3333333333333333
 40
0.3333333333333333
 40
0.3333333333333333
 40
0.4444444444444444
 40
0.4444444444444444
 40
0.4444444444444444
 40
0.4444444444444444
 40
0.5555555555555556
 40
0.5555555555555556
 40
0.5555555555555556
 40
0.5555555555555556
 40
0.6666666666666667
 40
0.6666666666666667
 40
0.6666666666666667
 40
0.6666666666666667
 40
0.7777777777777779
 40
0.7777777777777779
 40
0.7777777777777779
 40
0.7777777777777779
 40
0.8888888888888891
 40
0.8888888888888891
 40
0.8888888888888891
 40
0.8888888888888891
 40
1.0
 40
1.0
 40
1.0
 40
1.0
 10
73.0201
 20
-60.0974
 30
0.0
 10
73.0201
 20
-60.3126
 30
0.0
 10
73.0895
 20
-60.4866
 30
0.0
 10
73.2283
 20
-60.6195
 30
0.0
 10
73.2283
 20
-60.6195
 30
0.0
 10
73.367
 20
-60.7512
 30
0.0
 10
73.5587
 20
-60.8171
 30
0.0
 10
73.80210000000001
 20
-60.8171
 30
0.0
 10
73.80210000000001
 20
-60.8171
 30
0.0
 10
74.08670000000001
 20
-60.8171
 30
0.0
 10
74.3184
 20
-60.73
 30
0.0
 10
74.49590000000001
 20
-60.5572
 30
0.0
 10
74.49590000000001
 20
-60.5572
 30
0.0
 10
74.6735
 20
-60.3843
 30
0.0
 10
74.7629
 20
-60.17030000000001
 30
0.0
 10
74.7629
 20
-59.91860000000001
 30
0.0
 10
74.7629
 20
-59.91860000000001
 30
0.0
 10
74.7629
 20
-59.70460000000001
 30
0.0
 10
74.6935
 20
-59.5306
 30
0.0
 10
74.5547
 20
-59.3965
 30
0.0
 10
74.5547
 20
-59.3965
 30
0.0
 10
74.416
 20
-59.26130000000001
 30
0.0
 10
74.2243
 20
-59.19430000000001
 30
0.0
 10
73.98090000000001
 20
-59.19430000000001
 30
0.0
 10
73.98090000000001
 20
-59.19430000000001
 30
0.0
 10
73.79740000000001
 20
-59.19430000000001
 30
0.0
 10
73.6281
 20
-59.2366
 30
0.0
 10
73.474
 20
-59.3224
 30
0.0
 10
73.474
 20
-59.3224
 30
0.0
 10
73.32000000000001
 20
-59.4071
 30
0.0
 10
73.2059
 20
-59.52240000000001
 30
0.0
 10
73.1318
 20
-59.66820000000001
 30
0.0
 10
73.1318
 20
-59.66820000000001
 30
0.0
 10
73.0566
 20
-59.814
 30
0.0
 10
73.0201
 20
-59.9575
 30
0.0
 10
73.0201
 20
-60.0974
 30
0.0
  0
SPLINE
  5
3C
330
1F
100
AcDbEntity
  8
Ebene 1
 62
   250
100
AcDbSpline
210
0.0
220
0.0
230
1.0
 70
    11
 71
     3
 72
    40
 73
    36
 74
     0
 42
0.0000000001
 43
0.0000000001
 40
0.0
 40
0.0
 40
0.0
 40
0.0
 40
0.1111111111111111
 40
0.1111111111111111
 40
0.1111111111111111
 40
0.1111111111111111
 40
0.2222222222222222
 40
0.2222222222222222
 40
0.2222222222222222
 40
0.2222222222222222
 40
0.3333333333333333
 40
0.3333333333333333
 40
0.3333333333333333
 40
0.3333333333333333
 40
0.4444444444444444
 40
0.4444444444444444
 40
0.4444444444444444
 40
0.4444444444444444
 40
0.5555555555555556
 40
0.5555555555555556
 40
0.5555555555555556
 40
0.5555555555555556
 40
0.6666666666666667
 40
0.6666666666666667
 40
0.6666666666666667
 40
0.6666666666666667
 40
0.7777777777777779
 40
0.7777777777777779
 40
0.7777777777777779
 40
0.7777777777777779
 40
0.8888888888888891
 40
0.8888888888888891
 40
0.8888888888888891
 40
0.8888888888888891
 40
1.0
 40
1.0
 40
1.0
 40
1.0
 10
72.5333
 20
-62.53270000000001
 30
0.0
 10
72.5333
 20
-62.67270000000001
 30
0.0
 10
72.56740000000001
 20
-62.8079
 30
0.0
 10
72.6356
 20
-62.9361
 30
0.0
 10
72.6356
 20
-62.9361
 30
0.0
 10
72.7026
 20
-63.0643
 30
0.0
 10
72.8061
 20
-63.1666
 30
0.0
 10
72.94370000000001
 20
-63.243
 30
0.0
 10
72.94370000000001
 20
-63.243
 30
0.0
 10
73.0813
 20
-63.3183
 30
0.0
 10
73.2389
 20
-63.35590000000001
 30
0.0
 10
73.4152
 20
-63.35590000000001
 30
0.0
 10
73.4152
 20
-63.35590000000001
 30
0.0
 10
73.7539
 20
-63.35590000000001
 30
0.0
 10
74.02670000000001
 20
-63.1983
 30
0.0
 10
74.236
 20
-62.8808
 30
0.0
 10
74.236
 20
-62.8808
 30
0.0
 10
74.4007
 20
-62.6327
 30
0.0
 10
74.4842
 20
-62.3658
 30
0.0
 10
74.4842
 20
-62.0777
 30
0.0
 10
74.4842
 20
-62.0777
 30
0.0
 10
74.4842
 20
-61.8436
 30
0.0
 10
74.40770000000001
 20
-61.652
 30
0.0
 10
74.25490000000001
 20
-61.5026
 30
0.0
 10
74.25490000000001
 20
-61.5026
 30
0.0
 10
74.102
 20
-61.3533
 30
0.0
 10
73.9021
 20
-61.2792
 30
0.0
 10
73.65400000000001
 20
-61.2792
 30
0.0
 10
73.65400000000001
 20
-61.2792
 30
0.0
 10
73.3412
 20
-61.2792
 30
0.0
 10
73.0766
 20
-61.39440000000001
 30
0.0
 10
72.85900000000001
 20
-61.62730000000001
 30
0.0
 10
72.85900000000001
 20
-61.62730000000001
 30
0.0
 10
72.64270000000001
 20
-61.85890000000001
 30
0.0
 10
72.5333
 20
-62.1612
 30
0.0
 10
72.5333
 20
-62.53270000000001
 30
0.0
  0
SPLINE
  5
3D
330
1F
100
AcDbEntity
  8
Ebene 1
 62
   250
370
    15
100
AcDbSpline
210
0.0
220
0.0
230
1.0
 70
    24
 71
     3
 72
     8
 73
     4
 74
     0
 42
0.0000000001
 43
0.0000000001
 40
0.0
 40
0.0
 40
0.0
 40
0.0
 40
1.0
 40
1.0
 40
1.0
 40
1.0
 10
37.9176
 20
-59.6492
 30
0.0
 10
37.9176
 20
-59.6492
 30
0.0
 10
44.2006
 20
-59.6492
 30
0.0
 10
44.2006
 20
-59.6492
 30
0.0
  0
SPLINE
  5
3E
330
1F
100
AcDbEntity
  8
Ebene 1
 62
   250
370
    15
100
AcDbSpline
210
0.0
220
0.0
230
1.0
 70
    24
 71
     3
 72
     8
 73
     4
 74
     0
 42
0.0000000001
 43
0.0000000001
 40
0.0
 40
0.0
 40
0.0
 40
0.0
 40
1.0
 40
1.0
 40
1.0
 40
1.0
 10
37.9174
 20
52.8507
 30
0.0
 10
37.9174
 20
52.8507
 30
0.0
 10
44.2009
 20
52.8507
 30
0.0
 10
44.2009
 20
52.8507
 30
0.0
  0
SPLINE
  5
3F
330
1F
100
AcDbEntity
  8
Ebene 1
 62
   250
370
    15
100
AcDbSpline
210
0.0
220
0.0
230
1.0
 70
    24
 71
     3
 72
     8
 73
     4
 74
     0
 42
0.0000000001
 43
0.0000000001
 40
0.0
 40
0.0
 40
0.0
 40
0.0
 40
1.0
 40
1.0
 40
1.0
 40
1.0
 10
42.7011
 20
-59.6492
 30
0.0
 10
42.7011
 20
-59.6492
 30
0.0
 10
42.7011
 20
52.8508
 30
0.0
 10
42.7011
 20
52.8508
 30
0.0
  0
SPLINE
  5
40
330
1F
100
AcDbEntity
  8
Ebene 1
 62
   250
370
    15
100
AcDbSpline
210
0.0
220
0.0
230
1.0
 70
    11
 71
     3
 72
    16
 73
    12
 74
     0
 42
0.0000000001
 43
0.0000000001
 40
0.0
 40
0.0
 40
0.0
 40
0.0
 40
0.3333333333333333
 40
0.3333333333333333
 40
0.3333333333333333
 40
0.3333333333333333
 40
0.6666666666666666
 40
0.6666666666666666
 40
0.6666666666666666
 40
0.6666666666666666
 40
1.0
 40
1.0
 40
1.0
 40
1.0
 10
42.7011
 20
-59.6492
 30
0.0
 10
42.7011
 20
-59.6492
 30
0.0
 10
41.35140000000001
 20
-50.6491
 30
0.0
 10
41.35140000000001
 20
-50.6491
 30
0.0
 10
41.35140000000001
 20
-50.6491
 30
0.0
 10
41.35140000000001
 20
-50.6491
 30
0.0
 10
44.05110000000001
 20
-50.6491
 30
0.0
 10
44.05110000000001
 20
-50.6491
 30
0.0
 10
44.05110000000001
 20
-50.6491
 30
0.0
 10
44.05110000000001
 20
-50.6491
 30
0.0
 10
42.7011
 20
-59.6492
 30
0.0
 10
42.7011
 20
-59.6492
 30
0.0
  0
SPLINE
  5
41
330
1F
100
AcDbEntity
  8
Ebene 1
 62
   250
370
    15
100
AcDbSpline
210
0.0
220
0.0
230
1.0
 70
    11
 71
     3
 72
    16
 73
    12
 74
     0
 42
0.0000000001
 43
0.0000000001
 40
0.0
 40
0.0
 40
0.0
 40
0.0
 40
0.3333333333333333
 40
0.3333333333333333
 40
0.3333333333333333
 40
0.3333333333333333
 40
0.6666666666666666
 40
0.6666666666666666
 40
0.6666666666666666
 40
0.6666666666666666
 40
1.0
 40
1.0
 40
1.0
 40
1.0
 10
42.7011
 20
52.8508
 30
0.0
 10
42.7011
 20
52.8508
 30
0.0
 10
44.0512
 20
43.8513
 30
0.0
 10
44.0512
 20
43.8513
 30
0.0
 10
44.0512
 20
43.8513
 30
0.0
 10
44.0512
 20
43.8513
 30
0.0
 10
41.3515
 20
43.851
 30
0.0
 10
41.3515
 20
43.851
 30
0.0
 10
41.3515
 20
43.851
 30
0.0
 10
41.3515
 20
43.851
 30
0.0
 10
42.7011
 20
52.8508
 30
0.0
 10
42.7011
 20
52.8508
 30
0.0
  0
SPLINE
  5
42
330
1F
100
AcDbEntity
  8
Ebene 1
 62
   250
370
    15
100
AcDbSpline
210
0.0
220
0.0
230
1.0
 70
    11
 71
     3
 72
    16
 73
    12
 74
     0
 42
0.0000000001
 43
0.0000000001
 40
0.0
 40
0.0
 40
0.0
 40
0.0
 40
0.3333333333333333
 40
0.3333333333333333
 40
0.3333333333333333
 40
0.3333333333333333
 40
0.6666666666666666
 40
0.6666666666666666
 40
0.6666666666666666
 40
0.6666666666666666
 40
1.0
 40
1.0
 40
1.0
 40
1.0
 10
-21.3321
 20
61.6419
 30
0.0
 10
-21.3321
 20
61.6419
 30
0.0
 10
-30.3323
 20
60.29190000000001
 30
0.0
 10
-30.3323
 20
60.29190000000001
 30
0.0
 10
-30.3323
 20
60.29190000000001
 30
0.0
 10
-30.3323
 20
60.29190000000001
 30
0.0
 10
-30.3323
 20
62.9923
 30
0.0
 10
-30.3323
 20
62.9923
 30
0.0
 10
-30.3323
 20
62.9923
 30
0.0
 10
-30.3323
 20
62.9923
 30
0.0
 10
-21.3321
 20
61.6419
 30
0.0
 10
-21.3321
 20
61.6419
 30
0.0
  0
SPLINE
  5
43
330
1F
100
AcDbEntity
  8
Ebene 1
 62
   250
370
    15
100
AcDbSpline
210
0.0
220
0.0
230
1.0
 70
    24
 71
     3
 72
     8
 73
     4
 74
     0
 42
0.0000000001
 43
0.0000000001
 40
0.0
 40
0.0
 40
0.0
 40
0.0
 40
1.0
 40
1.0
 40
1.0
 40
1.0
 10
-21.3321
 20
61.64210000000001
 30
0.0
 10
-21.3321
 20
61.64210000000001
 30
0.0
 10
-77.5826
 20
61.64210000000001
 30
0.0
 10
-77.5826
 20
61.64210000000001
 30
0.0
  0
SPLINE
  5
44
330
1F
100
AcDbEntity
  8
Ebene 1
 62
   250
370
    15
100
AcDbSpline
210
0.0
220
0.0
230
1.0
 70
    24
 71
     3
 72
     8
 73
     4
 74
     0
 42
0.0000000001
 43
0.0000000001
 40
0.0
 40
0.0
 40
0.0
 40
0.0
 40
1.0
 40
1.0
 40
1.0
 40
1.0
 10
-77.5826
 20
54.3508
 30
0.0
 10
-77.5826
 20
54.3508
 30
0.0
 10
-77.5826
 20
62.7026
 30
0.0
 10
-77.5826
 20
62.7026
 30
0.0
  0
SPLINE
  5
45
330
1F
100
AcDbEntity
  8
Ebene 1
 62
   250
370
    15
100
AcDbSpline
210
0.0
220
0.0
230
1.0
 70
    24
 71
     3
 72
     8
 73
     4
 74
     0
 42
0.0000000001
 43
0.0000000001
 40
0.0
 40
0.0
 40
0.0
 40
0.0
 40
1.0
 40
1.0
 40
1.0
 40
1.0
 10
-21.3321
 20
54.3508
 30
0.0
 10
-21.3321
 20
54.3508
 30
0.0
 10
-21.3321
 20
62.7026
 30
0.0
 10
-21.3321
 20
62.7026
 30
0.0
  0
SPLINE
  5
46
330
1F
100
AcDbEntity
  8
Ebene 1
 62
   250
370
    15
100
AcDbSpline
210
0.0
220
0.0
230
1.0
 70
    11
 71
     3
 72
    16
 73
    12
 74
     0
 42
0.0000000001
 43
0.0000000001
 40
0.0
 40
0.0
 40
0.0
 40
0.0
 40
0.3333333333333333
 40
0.3333333333333333
 40
0.3333333333333333
 40
0.3333333333333333
 40
0.6666666666666666
 40
0.6666666666666666
 40
0.6666666666666666
 40
0.6666666666666666
 40
1.0
 40
1.0
 40
1.0
 40
1.0
 10
-19.8324
 20
61.64210000000001
 30
0.0
 10
-19.8324
 20
61.64210000000001
 30
0.0
 10
-10.8324
 20
62.9921
 30
0.0
 10
-10.8324
 20
62.9921
 30
0.0
 10
-10.8324
 20
62.9921
 30
0.0
 10
-10.8324
 20
62.9921
 30
0.0
 10
-10.8324
 20
60.2923
 30
0.0
 10
-10.8324
 20
60.2923
 30
0.0
 10
-10.8324
 20
60.2923
 30
0.0
 10
-10.8324
 20
60.2923
 30
0.0
 10
-19.8324
 20
61.64210000000001
 30
0.0
 10
-19.8324
 20
61.64210000000001
 30
0.0
  0
SPLINE
  5
47
330
1F
100
AcDbEntity
  8
Ebene 1
 62
   250
370
    15
100
AcDbSpline
210
0.0
220
0.0
230
1.0
 70
    11
 71
     3
 72
    16
 73
    12
 74
     0
 42
0.0000000001
 43
0.0000000001
 40
0.0
 40
0.0
 40
0.0
 40
0.0
 40
0.3333333333333333
 40
0.3333333333333333
 40
0.3333333333333333
 40
0.3333333333333333
 40
0.6666666666666666
 40
0.6666666666666666
 40
0.6666666666666666
 40
0.6666666666666666
 40
1.0
 40
1.0
 40
1.0
 40
1.0
 10
36.4178
 20
61.64210000000001
 30
0.0
 10
36.4178
 20
61.64210000000001
 30
0.0
 10
27.4178
 20
60.2923
 30
0.0
 10
27.4178
 20
60.2923
 30
0.0
 10
27.4178
 20
60.2923
 30
0.0
 10
27.4178
 20
60.2923
 30
0.0
 10
27.4178
 20
62.9921
 30
0.0
 10
27.4178
 20
62.9921
 30
0.0
 10
27.4178
 20
62.9921
 30
0.0
 10
27.4178
 20
62.9921
 30
0.0
 10
36.4178
 20
61.64210000000001
 30
0.0
 10
36.4178
 20
61.64210000000001
 30
0.0
  0
SPLINE
  5
48
330
1F
100
AcDbEntity
  8
Ebene 1
 62
   250
370
    15
100
AcDbSpline
210
0.0
220
0.0
230
1.0
 70
    24
 71
     3
 72
     8
 73
     4
 74
     0
 42
0.0000000001
 43
0.0000000001
 40
0.0
 40
0.0
 40
0.0
 40
0.0
 40
1.0
 40
1.0
 40
1.0
 40
1.0
 10
36.4178
 20
61.64210000000001
 30
0.0
 10
36.4178
 20
61.64210000000001
 30
0.0
 10
-19.8324
 20
61.64210000000001
 30
0.0
 10
-19.8324
 20
61.64210000000001
 30
0.0
  0
SPLINE
  5
49
330
1F
100
AcDbEntity
  8
Ebene 1
 62
   250
370
    15
100
AcDbSpline
210
0.0
220
0.0
230
1.0
 70
    24
 71
     3
 72
     8
 73
     4
 74
     0
 42
0.0000000001
 43
0.0000000001
 40
0.0
 40
0.0
 40
0.0
 40
0.0
 40
1.0
 40
1.0
 40
1.0
 40
1.0
 10
-19.8324
 20
54.3508
 30
0.0
 10
-19.8324
 20
54.3508
 30
0.0
 10
-19.8324
 20
63.1424
 30
0.0
 10
-19.8324
 20
63.1424
 30
0.0
  0
SPLINE
  5
4A
330
1F
100
AcDbEntity
  8
Ebene 1
 62
   250
370
    15
100
AcDbSpline
210
0.0
220
0.0
230
1.0
 70
    24
 71
     3
 72
     8
 73
     4
 74
     0
 42
0.0000000001
 43
0.0000000001
 40
0.0
 40
0.0
 40
0.0
 40
0.0
 40
1.0
 40
1.0
 40
1.0
 40
1.0
 10
36.4178
 20
54.3508
 30
0.0
 10
36.4178
 20
54.3508
 30
0.0
 10
36.4178
 20
63.1424
 30
0.0
 10
36.4178
 20
63.1424
 30
0.0
  0
SPLINE
  5
4B
330
1F
100
AcDbEntity
  8
Ebene 1
 62
   250
370
    15
100
AcDbSpline
210
0.0
220
0.0
230
1.0
 70
    11
 71
     3
 72
    16
 73
    12
 74
     0
 42
0.0000000001
 43
0.0000000001
 40
0.0
 40
0.0
 40
0.0
 40
0.0
 40
0.3333333333333333
 40
0.3333333333333333
 40
0.3333333333333333
 40
0.3333333333333333
 40
0.6666666666666666
 40
0.6666666666666666
 40
0.6666666666666666
 40
0.6666666666666666
 40
1.0
 40
1.0
 40
1.0
 40
1.0
 10
59.1007
 20
-66.006
 30
0.0
 10
59.1007
 20
-66.006
 30
0.0
 10
50.1011
 20
-67.35590000000001
 30
0.0
 10
50.1011
 20
-67.35590000000001
 30
0.0
 10
50.1011
 20
-67.35590000000001
 30
0.0
 10
50.1011
 20
-67.35590000000001
 30
0.0
 10
50.1011
 20
-64.6562
 30
0.0
 10
50.1011
 20
-64.6562
 30
0.0
 10
50.1011
 20
-64.6562
 30
0.0
 10
50.1011
 20
-64.6562
 30
0.0
 10
59.1007
 20
-66.006
 30
0.0
 10
59.1007
 20
-66.006
 30
0.0
  0
SPLINE
  5
4C
330
1F
100
AcDbEntity
  8
Ebene 1
 62
   250
370
    15
100
AcDbSpline
210
0.0
220
0.0
230
1.0
 70
    11
 71
     3
 72
    16
 73
    12
 74
     0
 42
0.0000000001
 43
0.0000000001
 40
0.0
 40
0.0
 40
0.0
 40
0.0
 40
0.3333333333333333
 40
0.3333333333333333
 40
0.3333333333333333
 40
0.3333333333333333
 40
0.6666666666666666
 40
0.6666666666666666
 40
0.6666666666666666
 40
0.6666666666666666
 40
1.0
 40
1.0
 40
1.0
 40
1.0
 10
59.70070000000001
 20
-66.006
 30
0.0
 10
59.70070000000001
 20
-66.006
 30
0.0
 10
68.7008
 20
-64.6562
 30
0.0
 10
68.7008
 20
-64.6562
 30
0.0
 10
68.7008
 20
-64.6562
 30
0.0
 10
68.7008
 20
-64.6562
 30
0.0
 10
68.7008
 20
-67.35590000000001
 30
0.0
 10
68.7008
 20
-67.35590000000001
 30
0.0
 10
68.7008
 20
-67.35590000000001
 30
0.0
 10
68.7008
 20
-67.35590000000001
 30
0.0
 10
59.70070000000001
 20
-66.006
 30
0.0
 10
59.70070000000001
 20
-66.006
 30
0.0
  0
SPLINE
  5
4D
330
1F
100
AcDbEntity
  8
Ebene 1
 62
   250
370
    15
100
AcDbSpline
210
0.0
220
0.0
230
1.0
 70
    24
 71
     3
 72
     8
 73
     4
 74
     0
 42
0.0000000001
 43
0.0000000001
 40
0.0
 40
0.0
 40
0.0
 40
0.0
 40
1.0
 40
1.0
 40
1.0
 40
1.0
 10
59.1007
 20
-66.006
 30
0.0
 10
59.1007
 20
-66.006
 30
0.0
 10
41.101
 20
-66.006
 30
0.0
 10
41.101
 20
-66.006
 30
0.0
  0
SPLINE
  5
4E
330
1F
100
AcDbEntity
  8
Ebene 1
 62
   250
370
    15
100
AcDbSpline
210
0.0
220
0.0
230
1.0
 70
    24
 71
     3
 72
     8
 73
     4
 74
     0
 42
0.0000000001
 43
0.0000000001
 40
0.0
 40
0.0
 40
0.0
 40
0.0
 40
1.0
 40
1.0
 40
1.0
 40
1.0
 10
59.70070000000001
 20
-66.006
 30
0.0
 10
59.70070000000001
 20
-66.006
 30
0.0
 10
59.1007
 20
-66.006
 30
0.0
 10
59.1007
 20
-66.006
 30
0.0
  0
SPLINE
  5
4F
330
1F
100
AcDbEntity
  8
Ebene 1
 62
   250
370
    15
100
AcDbSpline
210
0.0
220
0.0
230
1.0
 70
    24
 71
     3
 72
     8
 73
     4
 74
     0
 42
0.0000000001
 43
0.0000000001
 40
0.0
 40
0.0
 40
0.0
 40
0.0
 40
1.0
 40
1.0
 40
1.0
 40
1.0
 10
59.70070000000001
 20
-66.006
 30
0.0
 10
59.70070000000001
 20
-66.006
 30
0.0
 10
77.58280000000001
 20
-66.006
 30
0.0
 10
77.58280000000001
 20
-66.006
 30
0.0
  0
SPLINE
  5
50
330
1F
100
AcDbEntity
  8
Ebene 1
 62
   250
370
    15
100
AcDbSpline
210
0.0
220
0.0
230
1.0
 70
    24
 71
     3
 72
     8
 73
     4
 74
     0
 42
0.0000000001
 43
0.0000000001
 40
0.0
 40
0.0
 40
0.0
 40
0.0
 40
1.0
 40
1.0
 40
1.0
 40
1.0
 10
59.1007
 20
-61.1493
 30
0.0
 10
59.1007
 20
-61.1493
 30
0.0
 10
59.1007
 20
-67.5057
 30
0.0
 10
59.1007
 20
-67.5057
 30
0.0
  0
SPLINE
  5
51
330
1F
100
AcDbEntity
  8
Ebene 1
 62
   250
370
    15
100
AcDbSpline
210
0.0
220
0.0
230
1.0
 70
    24
 71
     3
 72
     8
 73
     4
 74
     0
 42
0.0000000001
 43
0.0000000001
 40
0.0
 40
0.0
 40
0.0
 40
0.0
 40
1.0
 40
1.0
 40
1.0
 40
1.0
 10
59.70070000000001
 20
-61.1493
 30
0.0
 10
59.70070000000001
 20
-61.1493
 30
0.0
 10
59.70070000000001
 20
-67.5057
 30
0.0
 10
59.70070000000001
 20
-67.5057
 30
0.0
  0
SPLINE
  5
52
330
1F
100
AcDbEntity
  8
Ebene 1
 62
   250
100
AcDbSpline
210
0.0
220
0.0
230
1.0
 70
    11
 71
     3
 72
    16
 73
    12
 74
     0
 42
0.0000000001
 43
0.0000000001
 40
0.0
 40
0.0
 40
0.0
 40
0.0
 40
0.3333333333333333
 40
0.3333333333333333
 40
0.3333333333333333
 40
0.3333333333333333
 40
0.6666666666666666
 40
0.6666666666666666
 40
0.6666666666666666
 40
0.6666666666666666
 40
1.0
 40
1.0
 40
1.0
 40
1.0
 10
42.7011
 20
-59.6492
 30
0.0
 10
42.7011
 20
-59.6492
 30
0.0
 10
41.35140000000001
 20
-50.6491
 30
0.0
 10
41.35140000000001
 20
-50.6491
 30
0.0
 10
41.35140000000001
 20
-50.6491
 30
0.0
 10
41.35140000000001
 20
-50.6491
 30
0.0
 10
44.05110000000001
 20
-50.6491
 30
0.0
 10
44.05110000000001
 20
-50.6491
 30
0.0
 10
44.05110000000001
 20
-50.6491
 30
0.0
 10
44.05110000000001
 20
-50.6491
 30
0.0
 10
42.7011
 20
-59.6492
 30
0.0
 10
42.7011
 20
-59.6492
 30
0.0
  0
SPLINE
  5
53
330
1F
100
AcDbEntity
  8
Ebene 1
 62
   250
100
AcDbSpline
210
0.0
220
0.0
230
1.0
 70
    11
 71
     3
 72
    16
 73
    12
 74
     0
 42
0.0000000001
 43
0.0000000001
 40
0.0
 40
0.0
 40
0.0
 40
0.0
 40
0.3333333333333333
 40
0.3333333333333333
 40
0.3333333333333333
 40
0.3333333333333333
 40
0.6666666666666666
 40
0.6666666666666666
 40
0.6666666666666666
 40
0.6666666666666666
 40
1.0
 40
1.0
 40
1.0
 40
1.0
 10
42.7011
 20
52.8508
 30
0.0
 10
42.7011
 20
52.8508
 30
0.0
 10
44.0512
 20
43.8513
 30
0.0
 10
44.0512
 20
43.8513
 30
0.0
 10
44.0512
 20
43.8513
 30
0.0
 10
44.0512
 20
43.8513
 30
0.0
 10
41.3515
 20
43.851
 30
0.0
 10
41.3515
 20
43.851
 30
0.0
 10
41.3515
 20
43.851
 30
0.0
 10
41.3515
 20
43.851
 30
0.0
 10
42.7011
 20
52.8508
 30
0.0
 10
42.7011
 20
52.8508
 30
0.0
  0
SPLINE
  5
54
330
1F
100
AcDbEntity
  8
Ebene 1
 62
   250
100
AcDbSpline
210
0.0
220
0.0
230
1.0
 70
    11
 71
     3
 72
    16
 73
    12
 74
     0
 42
0.0000000001
 43
0.0000000001
 40
0.0
 40
0.0
 40
0.0
 40
0.0
 40
0.3333333333333333
 40
0.3333333333333333
 40
0.3333333333333333
 40
0.3333333333333333
 40
0.6666666666666666
 40
0.6666666666666666
 40
0.6666666666666666
 40
0.6666666666666666
 40
1.0
 40
1.0
 40
1.0
 40
1.0
 10
-77.5826
 20
61.6419
 30
0.0
 10
-77.5826
 20
61.6419
 30
0.0
 10
-68.58240000000001
 20
62.9923
 30
0.0
 10
-68.58240000000001
 20
62.9923
 30
0.0
 10
-68.58240000000001
 20
62.9923
 30
0.0
 10
-68.58240000000001
 20
62.9923
 30
0.0
 10
-68.58240000000001
 20
60.29190000000001
 30
0.0
 10
-68.58240000000001
 20
60.29190000000001
 30
0.0
 10
-68.58240000000001
 20
60.29190000000001
 30
0.0
 10
-68.58240000000001
 20
60.29190000000001
 30
0.0
 10
-77.5826
 20
61.6419
 30
0.0
 10
-77.5826
 20
61.6419
 30
0.0
  0
SPLINE
  5
55
330
1F
100
AcDbEntity
  8
Ebene 1
 62
   250
370
    35
100
AcDbSpline
210
0.0
220
0.0
230
1.0
 70
    24
 71
     3
 72
     8
 73
     4
 74
     0
 42
0.0000000001
 43
0.0000000001
 40
0.0
 40
0.0
 40
0.0
 40
0.0
 40
1.0
 40
1.0
 40
1.0
 40
1.0
 10
59.7009
 20
52.8507
 30
0.0
 10
59.7009
 20
52.8507
 30
0.0
 10
59.70070000000001
 20
-59.6491
 30
0.0
 10
59.70070000000001
 20
-59.6491
 30
0.0
  0
SPLINE
  5
56
330
1F
100
AcDbEntity
  8
Ebene 1
 62
   250
370
    35
100
AcDbSpline
210
0.0
220
0.0
230
1.0
 70
    24
 71
     3
 72
     8
 73
     4
 74
     0
 42
0.0000000001
 43
0.0000000001
 40
0.0
 40
0.0
 40
0.0
 40
0.0
 40
1.0
 40
1.0
 40
1.0
 40
1.0
 10
59.70070000000001
 20
-59.6491
 30
0.0
 10
59.70070000000001
 20
-59.6491
 30
0.0
 10
59.1007
 20
-59.6494
 30
0.0
 10
59.1007
 20
-59.6494
 30
0.0
  0
SPLINE
  5
57
330
1F
100
AcDbEntity
  8
Ebene 1
 62
   250
370
    35
100
AcDbSpline
210
0.0
220
0.0
230
1.0
 70
    24
 71
     3
 72
     8
 73
     4
 74
     0
 42
0.0000000001
 43
0.0000000001
 40
0.0
 40
0.0
 40
0.0
 40
0.0
 40
1.0
 40
1.0
 40
1.0
 40
1.0
 10
59.1007
 20
52.8507
 30
0.0
 10
59.1007
 20
52.8507
 30
0.0
 10
59.1007
 20
-59.6494
 30
0.0
 10
59.1007
 20
-59.6494
 30
0.0
  0
SPLINE
  5
58
330
1F
100
AcDbEntity
  8
Ebene 1
 62
   250
370
    35
100
AcDbSpline
210
0.0
220
0.0
230
1.0
 70
    24
 71
     3
 72
     8
 73
     4
 74
     0
 42
0.0000000001
 43
0.0000000001
 40
0.0
 40
0.0
 40
0.0
 40
0.0
 40
1.0
 40
1.0
 40
1.0
 40
1.0
 10
59.7009
 20
52.8507
 30
0.0
 10
59.7009
 20
52.8507
 30
0.0
 10
59.1007
 20
52.8507
 30
0.0
 10
59.1007
 20
52.8507
 30
0.0
  0
SPLINE
  5
59
330
1F
100
AcDbEntity
  8
Ebene 1
 62
   250
370
    35
100
AcDbSpline
210
0.0
220
0.0
230
1.0
 70
    24
 71
     3
 72
     8
 73
     4
 74
     0
 42
0.0000000001
 43
0.0000000001
 40
0.0
 40
0.0
 40
0.0
 40
0.0
 40
1.0
 40
1.0
 40
1.0
 40
1.0
 10
-21.3321
 20
-59.6492
 30
0.0
 10
-21.3321
 20
-59.6492
 30
0.0
 10
-21.3321
 20
52.8508
 30
0.0
 10
-21.3321
 20
52.8508
 30
0.0
  0
SPLINE
  5
5A
330
1F
100
AcDbEntity
  8
Ebene 1
 62
   250
370
    35
100
AcDbSpline
210
0.0
220
0.0
230
1.0
 70
    24
 71
     3
 72
     8
 73
     4
 74
     0
 42
0.0000000001
 43
0.0000000001
 40
0.0
 40
0.0
 40
0.0
 40
0.0
 40
1.0
 40
1.0
 40
1.0
 40
1.0
 10
-77.5823
 20
52.8507
 30
0.0
 10
-77.5823
 20
52.8507
 30
0.0
 10
-77.5826
 20
-59.6492
 30
0.0
 10
-77.5826
 20
-59.6492
 30
0.0
  0
SPLINE
  5
5B
330
1F
100
AcDbEntity
  8
Ebene 1
 62
   250
370
    35
100
AcDbSpline
210
0.0
220
0.0
230
1.0
 70
    24
 71
     3
 72
     8
 73
     4
 74
     0
 42
0.0000000001
 43
0.0000000001
 40
0.0
 40
0.0
 40
0.0
 40
0.0
 40
1.0
 40
1.0
 40
1.0
 40
1.0
 10
-21.3321
 20
52.8508
 30
0.0
 10
-21.3321
 20
52.8508
 30
0.0
 10
-77.5823
 20
52.8507
 30
0.0
 10
-77.5823
 20
52.8507
 30
0.0
  0
SPLINE
  5
5C
330
1F
100
AcDbEntity
  8
Ebene 1
 62
   250
370
    35
100
AcDbSpline
210
0.0
220
0.0
230
1.0
 70
    24
 71
     3
 72
     8
 73
     4
 74
     0
 42
0.0000000001
 43
0.0000000001
 40
0.0
 40
0.0
 40
0.0
 40
0.0
 40
1.0
 40
1.0
 40
1.0
 40
1.0
 10
-77.5826
 20
-59.6492
 30
0.0
 10
-77.5826
 20
-59.6492
 30
0.0
 10
-21.3321
 20
-59.6492
 30
0.0
 10
-21.3321
 20
-59.6492
 30
0.0
  0
SPLINE
  5
5D
330
1F
100
AcDbEntity
  8
Ebene 1
 62
   250
370
    35
100
AcDbSpline
210
0.0
220
0.0
230
1.0
 70
    24
 71
     3
 72
     8
 73
     4
 74
     0
 42
0.0000000001
 43
0.0000000001
 40
0.0
 40
0.0
 40
0.0
 40
0.0
 40
1.0
 40
1.0
 40
1.0
 40
1.0
 10
36.4177
 20
-59.6492
 30
0.0
 10
36.4177
 20
-59.6492
 30
0.0
 10
36.4179
 20
52.8505
 30
0.0
 10
36.4179
 20
52.8505
 30
0.0
  0
SPLINE
  5
5E
330
1F
100
AcDbEntity
  8
Ebene 1
 62
   250
370
    35
100
AcDbSpline
210
0.0
220
0.0
230
1.0
 70
    24
 71
     3
 72
     8
 73
     4
 74
     0
 42
0.0000000001
 43
0.0000000001
 40
0.0
 40
0.0
 40
0.0
 40
0.0
 40
1.0
 40
1.0
 40
1.0
 40
1.0
 10
-19.8324
 20
-59.6492
 30
0.0
 10
-19.8324
 20
-59.6492
 30
0.0
 10
36.4177
 20
-59.6492
 30
0.0
 10
36.4177
 20
-59.6492
 30
0.0
  0
SPLINE
  5
5F
330
1F
100
AcDbEntity
  8
Ebene 1
 62
   250
370
    35
100
AcDbSpline
210
0.0
220
0.0
230
1.0
 70
    24
 71
     3
 72
     8
 73
     4
 74
     0
 42
0.0000000001
 43
0.0000000001
 40
0.0
 40
0.0
 40
0.0
 40
0.0
 40
1.0
 40
1.0
 40
1.0
 40
1.0
 10
-19.8324
 20
52.8507
 30
0.0
 10
-19.8324
 20
52.8507
 30
0.0
 10
-19.8324
 20
-59.6492
 30
0.0
 10
-19.8324
 20
-59.6492
 30
0.0
  0
SPLINE
  5
60
330
1F
100
AcDbEntity
  8
Ebene 1
 62
   250
370
    35
100
AcDbSpline
210
0.0
220
0.0
230
1.0
 70
    24
 71
     3
 72
     8
 73
     4
 74
     0
 42
0.0000000001
 43
0.0000000001
 40
0.0
 40
0.0
 40
0.0
 40
0.0
 40
1.0
 40
1.0
 40
1.0
 40
1.0
 10
36.4179
 20
52.8505
 30
0.0
 10
36.4179
 20
52.8505
 30
0.0
 10
-19.8324
 20
52.8507
 30
0.0
 10
-19.8324
 20
52.8507
 30
0.0
  0
ENDSEC
  0
SECTION
  2
OBJECTS
  0
DICTIONARY
  5
C
330
0
100
AcDbDictionary
281
     1
  3
ACAD_GROUP
350
D
  3
ACAD_LAYOUT
350
1A
  3
ACAD_MLINESTYLE
350
17
  3
ACAD_PLOTSETTINGS
350
19
  3
ACAD_PLOTSTYLENAME
350
E
  0
DICTIONARY
  5
D
102
{ACAD_REACTORS
330
C
102
}
330
C
100
AcDbDictionary
281
     1
  0
DICTIONARY
  5
1A
102
{ACAD_REACTORS
330
C
102
}
330
C
100
AcDbDictionary
281
     1
  3
Layout1
350
1E
  3
Layout2
350
26
  3
Model
350
22
  0
DICTIONARY
  5
17
102
{ACAD_REACTORS
330
C
102
}
330
C
100
AcDbDictionary
281
     1
  3
Standard
350
18
  0
DICTIONARY
  5
19
102
{ACAD_REACTORS
330
C
102
}
330
C
100
AcDbDictionary
281
     1
  0
ACDBDICTIONARYWDFLT
  5
E
102
{ACAD_REACTORS
330
C
102
}
330
C
100
AcDbDictionary
281
     1
  3
Normal
350
F
100
AcDbDictionaryWithDefault
340
F
  0
LAYOUT
  5
1E
102
{ACAD_REACTORS
330
1A
102
}
330
1A
100
AcDbPlotSettings
  1

  2

  4

  6

 40
0.0
 41
0.0
 42
0.0
 43
0.0
 44
0.0
 45
0.0
 46
0.0
 47
0.0
 48
0.0
 49
0.0
140
0.0
141
0.0
142
1.0
143
1.0
 70
   688
 72
     0
 73
     0
 74
     5
  7

 75
    16
 76
     0
 77
     2
 78
   300
147
1.0
148
0.0
149
0.0
100
AcDbLayout
  1
Layout1
 70
     1
 71
     1
 10
0.0
 20
0.0
 11
12.0
 21
9.0
 12
0.0
 22
0.0
 32
0.0
 14
1.000000000000000E+20
 24
1.000000000000000E+20
 34
1.000000000000000E+20
 15
-1.000000000000000E+20
 25
-1.000000000000000E+20
 35
-1.000000000000000E+20
146
0.0
 13
0.0
 23
0.0
 33
0.0
 16
1.0
 26
0.0
 36
0.0
 17
0.0
 27
1.0
 37
0.0
 76
     0
330
1B
  0
LAYOUT
  5
26
102
{ACAD_REACTORS
330
1A
102
}
330
1A
100
AcDbPlotSettings
  1

  2

  4

  6

 40
0.0
 41
0.0
 42
0.0
 43
0.0
 44
0.0
 45
0.0
 46
0.0
 47
0.0
 48
0.0
 49
0.0
140
0.0
141
0.0
142
1.0
143
1.0
 70
   688
 72
     0
 73
     0
 74
     5
  7

 75
    16
 76
     0
 77
     2
 78
   300
147
1.0
148
0.0
149
0.0
100
AcDbLayout
  1
Layout2
 70
     1
 71
     2
 10
0.0
 20
0.0
 11
0.0
 21
0.0
 12
0.0
 22
0.0
 32
0.0
 14
0.0
 24
0.0
 34
0.0
 15
0.0
 25
0.0
 35
0.0
146
0.0
 13
0.0
 23
0.0
 33
0.0
 16
1.0
 26
0.0
 36
0.0
 17
0.0
 27
1.0
 37
0.0
 76
     0
330
23
  0
LAYOUT
  5
22
102
{ACAD_REACTORS
330
1A
102
}
330
1A
100
AcDbPlotSettings
  1

  2

  4

  6

 40
0.0
 41
0.0
 42
0.0
 43
0.0
 44
0.0
 45
0.0
 46
0.0
 47
0.0
 48
0.0
 49
0.0
140
0.0
141
0.0
142
1.0
143
1.0
 70
  1712
 72
     0
 73
     0
 74
     0
  7

 75
     0
 76
     0
 77
     2
 78
   300
147
1.0
148
0.0
149
0.0
100
AcDbLayout
  1
Model
 70
     1
 71
     0
 10
0.0
 20
0.0
 11
0.0
 21
0.0
 12
0.0
 22
0.0
 32
0.0
 14
-77.7077
 24
-67.59569999999999
 34
0.0
 15
77.6728
 25
67.5057
 35
0.0
146
0.0
 13
0.0
 23
0.0
 33
0.0
 16
1.0
 26
0.0
 36
0.0
 17
0.0
 27
1.0
 37
0.0
 76
     0
330
1F
  0
MLINESTYLE
  5
18
102
{ACAD_REACTORS
330
17
102
}
330
17
100
AcDbMlineStyle
  2
Standard
 70
     0
  3

 62
   256
 51
90.0
 52
90.0
 71
     2
 49
0.5
 62
   256
  6
BYLAYER
 49
-0.5
 62
   256
  6
BYLAYER
  0
ACDBPLACEHOLDER
  5
F
102
{ACAD_REACTORS
330
E
102
}
330
E
  0
ENDSEC
  0
EOF
