  0
SECTION
  2
HEADER
  9
$ACADVER
  1
AC1015
  9
$ACADMAINTVER
 70
     6
  9
$DWGCODEPAGE
  3
ANSI_1252
  9
$INSBASE
 10
0.0
 20
0.0
 30
0.0
  9
$EXTMIN
 10
0.0
 20
0.0
 30
0.0
  9
$EXTMAX
 10
420.0
 20
297.0
 30
0.0
  9
$LIMMIN
 10
0.0
 20
0.0
  9
$LIMMAX
 10
420.0
 20
297.0
  9
$ORTHOMODE
 70
     0
  9
$REGENMODE
 70
     1
  9
$FILLMODE
 70
     1
  9
$QTEXTMODE
 70
     0
  9
$MIRRTEXT
 70
     1
  9
$LTSCALE
 40
1.0
  9
$ATTMODE
 70
     1
  9
$TEXTSIZE
 40
3.5
  9
$TRACEWID
 40
1.0
  9
$TEXTSTYLE
  7
Standard
  9
$CLAYER
  8
0
  9
$CELTYPE
  6
ByLayer
  9
$CECOLOR
 62
   256
  9
$CELTSCALE
 40
1.0
  9
$DISPSILH
 70
     0
  9
$DIMSCALE
 40
1.0
  9
$DIMASZ
 40
6.0
  9
$DIMEXO
 40
1.0
  9
$DIMDLI
 40
3.75
  9
$DIMRND
 40
0.0
  9
$DIMDLE
 40
0.0
  9
$DIMEXE
 40
1.0
  9
$DIMTP
 40
0.0
  9
$DIMTM
 40
0.0
  9
$DIMTXT
 40
3.5
  9
$DIMCEN
 40
2.5
  9
$DIMTSZ
 40
0.0
  9
$DIMTOL
 70
     0
  9
$DIMLIM
 70
     0
  9
$DIMTIH
 70
     1
  9
$DIMTOH
 70
     1
  9
$DIMSE1
 70
     0
  9
$DIMSE2
 70
     0
  9
$DIMTAD
 70
     1
  9
$DIMZIN
 70
     1
  9
$DIMBLK
  1

  9
$DIMASO
 70
     1
  9
$DIMSHO
 70
     1
  9
$DIMPOST
  1

  9
$DIMAPOST
  1

  9
$DIMALT
 70
     0
  9
$DIMALTD
 70
     3
  9
$DIMALTF
 40
0.0393700787
  9
$DIMLFAC
 40
2.0
  9
$DIMTOFL
 70
     1
  9
$DIMTVP
 40
0.0
  9
$DIMTIX
 70
     0
  9
$DIMSOXD
 70
     0
  9
$DIMSAH
 70
     0
  9
$DIMBLK1
  1

  9
$DIMBLK2
  1

  9
$DIMSTYLE
  2
ISO-25
  9
$DIMCLRD
 70
     0
  9
$DIMCLRE
 70
     0
  9
$DIMCLRT
 70
     0
  9
$DIMTFAC
 40
1.0
  9
$DIMGAP
 40
1.524
  9
$DIMJUST
 70
     0
  9
$DIMSD1
 70
     0
  9
$DIMSD2
 70
     0
  9
$DIMTOLJ
 70
     0
  9
$DIMTZIN
 70
     1
  9
$DIMALTZ
 70
     0
  9
$DIMALTTZ
 70
     0
  9
$DIMUPT
 70
     0
  9
$DIMDEC
 70
     2
  9
$DIMTDEC
 70
     2
  9
$DIMALTU
 70
     2
  9
$DIMALTTD
 70
     3
  9
$DIMTXSTY
  7
Standard
  9
$DIMAUNIT
 70
     0
  9
$DIMADEC
 70
     0
  9
$DIMALTRND
 40
0.0
  9
$DIMAZIN
 70
     0
  9
$DIMDSEP
 70
    44
  9
$DIMATFIT
 70
     3
  9
$DIMFRAC
 70
     0
  9
$DIMLDRBLK
  1

  9
$DIMLUNIT
 70
     2
  9
$DIMLWD
 70
    -2
  9
$DIMLWE
 70
    -2
  9
$DIMTMOVE
 70
     0
  9
$LUNITS
 70
     2
  9
$LUPREC
 70
     4
  9
$SKETCHINC
 40
1.0
  9
$FILLETRAD
 40
10.0
  9
$AUNITS
 70
     0
  9
$AUPREC
 70
     0
  9
$MENU
  1
.
  9
$ELEVATION
 40
0.0
  9
$PELEVATION
 40
0.0
  9
$THICKNESS
 40
0.0
  9
$LIMCHECK
 70
     0
  9
$CHAMFERA
 40
0.0
  9
$CHAMFERB
 40
0.0
  9
$CHAMFERC
 40
0.0
  9
$CHAMFERD
 40
0.0
  9
$SKPOLY
 70
     0
  9
$TDCREATE
 40
2458015.352597732
  9
$TDUCREATE
 40
2458015.269264398
  9
$TDUPDATE
 40
2458015.35259787
  9
$TDUUPDATE
 40
2458015.269264537
  9
$TDINDWG
 40
0.0000000116
  9
$TDUSRTIMER
 40
0.0000000116
  9
$USRTIMER
 70
     1
  9
$ANGBASE
 50
0.0
  9
$ANGDIR
 70
     0
  9
$PDMODE
 70
     0
  9
$PDSIZE
 40
-1.0
  9
$PLINEWID
 40
0.0
  9
$SPLFRAME
 70
     0
  9
$SPLINETYPE
 70
     6
  9
$SPLINESEGS
 70
     8
  9
$HANDSEED
  5
158
  9
$SURFTAB1
 70
     6
  9
$SURFTAB2
 70
     6
  9
$SURFTYPE
 70
     6
  9
$SURFU
 70
     6
  9
$SURFV
 70
     6
  9
$UCSBASE
  2

  9
$UCSNAME
  2

  9
$UCSORG
 10
0.0
 20
0.0
 30
0.0
  9
$UCSXDIR
 10
1.0
 20
0.0
 30
0.0
  9
$UCSYDIR
 10
0.0
 20
1.0
 30
0.0
  9
$UCSORTHOREF
  2

  9
$UCSORTHOVIEW
 70
     0
  9
$UCSORGTOP
 10
0.0
 20
0.0
 30
0.0
  9
$UCSORGBOTTOM
 10
0.0
 20
0.0
 30
0.0
  9
$UCSORGLEFT
 10
0.0
 20
0.0
 30
0.0
  9
$UCSORGRIGHT
 10
0.0
 20
0.0
 30
0.0
  9
$UCSORGFRONT
 10
0.0
 20
0.0
 30
0.0
  9
$UCSORGBACK
 10
0.0
 20
0.0
 30
0.0
  9
$PUCSBASE
  2

  9
$PUCSNAME
  2

  9
$PUCSORG
 10
0.0
 20
0.0
 30
0.0
  9
$PUCSXDIR
 10
1.0
 20
0.0
 30
0.0
  9
$PUCSYDIR
 10
0.0
 20
1.0
 30
0.0
  9
$PUCSORTHOREF
  2

  9
$PUCSORTHOVIEW
 70
     0
  9
$PUCSORGTOP
 10
0.0
 20
0.0
 30
0.0
  9
$PUCSORGBOTTOM
 10
0.0
 20
0.0
 30
0.0
  9
$PUCSORGLEFT
 10
0.0
 20
0.0
 30
0.0
  9
$PUCSORGRIGHT
 10
0.0
 20
0.0
 30
0.0
  9
$PUCSORGFRONT
 10
0.0
 20
0.0
 30
0.0
  9
$PUCSORGBACK
 10
0.0
 20
0.0
 30
0.0
  9
$USERI1
 70
     0
  9
$USERI2
 70
     0
  9
$USERI3
 70
     0
  9
$USERI4
 70
     0
  9
$USERI5
 70
     0
  9
$USERR1
 40
0.0
  9
$USERR2
 40
0.0
  9
$USERR3
 40
0.0
  9
$USERR4
 40
0.0
  9
$USERR5
 40
0.0
  9
$WORLDVIEW
 70
     1
  9
$SHADEDGE
 70
     3
  9
$SHADEDIF
 70
    70
  9
$TILEMODE
 70
     1
  9
$MAXACTVP
 70
    64
  9
$PINSBASE
 10
0.0
 20
0.0
 30
0.0
  9
$PLIMCHECK
 70
     0
  9
$PEXTMIN
 10
1.0000000000E+20
 20
1.0000000000E+20
 30
1.0000000000E+20
  9
$PEXTMAX
 10
-1.0000000000E+20
 20
-1.0000000000E+20
 30
-1.0000000000E+20
  9
$PLIMMIN
 10
0.0
 20
0.0
  9
$PLIMMAX
 10
420.0
 20
297.0
  9
$UNITMODE
 70
     0
  9
$VISRETAIN
 70
     1
  9
$PLINEGEN
 70
     0
  9
$PSLTSCALE
 70
     1
  9
$TREEDEPTH
 70
  3020
  9
$CMLSTYLE
  2
Standard
  9
$CMLJUST
 70
     0
  9
$CMLSCALE
 40
20.0
  9
$PROXYGRAPHICS
 70
     1
  9
$MEASUREMENT
 70
     1
  9
$CELWEIGHT
370
    -1
  9
$ENDCAPS
280
     0
  9
$JOINSTYLE
280
     0
  9
$LWDISPLAY
290
     1
  9
$INSUNITS
 70
     4
  9
$HYPERLINKBASE
  1

  9
$STYLESHEET
  1

  9
$XEDIT
290
     1
  9
$CEPSNTYPE
380
     0
  9
$PSTYLEMODE
290
     1
  9
$FINGERPRINTGUID
  2
{E2FF855D-C60A-4402-BE8D-F6B93950038D}
  9
$VERSIONGUID
  2
{FAEB1C32-E019-11D5-929B-00C0DF256EC4}
  9
$EXTNAMES
290
     1
  9
$PSVPSCALE
 40
0.0
  9
$OLESTARTUP
290
     0
  0
ENDSEC
  0
SECTION
  2
CLASSES
  0
CLASS
  1
ACDBDICTIONARYWDFLT
  2
AcDbDictionaryWithDefault
  3
ObjectDBX Classes
 90
        0
280
     0
281
     0
  0
CLASS
  1
VISUALSTYLE
  2
AcDbVisualStyle
  3
ObjectDBX Classes
 90
     4095
280
     0
281
     0
  0
CLASS
  1
MATERIAL
  2
AcDbMaterial
  3
ObjectDBX Classes
 90
     1153
280
     0
281
     0
  0
CLASS
  1
SCALE
  2
AcDbScale
  3
ObjectDBX Classes
 90
     1153
280
     0
281
     0
  0
CLASS
  1
TABLESTYLE
  2
AcDbTableStyle
  3
ObjectDBX Classes
 90
     4095
280
     0
281
     0
  0
CLASS
  1
MLEADERSTYLE
  2
AcDbMLeaderStyle
  3
ACDB_MLEADERSTYLE_CLASS
 90
     4095
280
     0
281
     0
  0
CLASS
  1
SUN
  2
AcDbSun
  3
SCENEOE
 90
     1153
280
     0
281
     0
  0
CLASS
  1
ACDBPLACEHOLDER
  2
AcDbPlaceHolder
  3
ObjectDBX Classes
 90
        0
280
     0
281
     0
  0
CLASS
  1
LAYOUT
  2
AcDbLayout
  3
ObjectDBX Classes
 90
        0
280
     0
281
     0
  0
ENDSEC
  0
SECTION
  2
TABLES
  0
TABLE
  2
VPORT
  5
8
330
0
100
AcDbSymbolTable
 70
     1
  0
VPORT
  5
29
330
8
100
AcDbSymbolTableRecord
100
AcDbViewportTableRecord
  2
*Active
 70
     0
 10
0.0
 20
0.0
 11
1.0
 21
1.0
 12
210.0
 22
148.5
 13
0.0
 23
0.0
 14
10.0
 24
10.0
 15
10.0
 25
10.0
 16
0.0
 26
0.0
 36
1.0
 17
0.0
 27
0.0
 37
0.0
 40
297.0
 41
1.4141414141
 42
50.0
 43
0.0
 44
0.0
 50
0.0
 51
0.0
 71
     0
 72
  2000
 73
     1
 74
     3
 75
     0
 76
     0
 77
     0
 78
     0
281
     0
 65
     1
110
0.0
120
0.0
130
0.0
111
1.0
121
0.0
131
0.0
112
0.0
122
1.0
132
0.0
 79
     0
146
0.0
  0
ENDTAB
  0
TABLE
  2
LTYPE
  5
5
330
0
100
AcDbSymbolTable
 70
     8
  0
LTYPE
  5
14
330
5
100
AcDbSymbolTableRecord
100
AcDbLinetypeTableRecord
  2
ByBlock
 70
     0
  3

 72
    65
 73
     0
 40
0.0
  0
LTYPE
  5
15
330
5
100
AcDbSymbolTableRecord
100
AcDbLinetypeTableRecord
  2
ByLayer
 70
     0
  3

 72
    65
 73
     0
 40
0.0
  0
LTYPE
  5
16
330
5
100
AcDbSymbolTableRecord
100
AcDbLinetypeTableRecord
  2
Continuous
 70
     0
  3
Solid line
 72
    65
 73
     0
 40
0.0
  0
LTYPE
  5
6E
330
5
100
AcDbSymbolTableRecord
100
AcDbLinetypeTableRecord
  2
SLD-Durchgehend
 70
     0
  3
SolidWorks Line Style
 72
    65
 73
     0
 40
0.0
  0
LTYPE
  5
6F
330
5
100
AcDbSymbolTableRecord
100
AcDbLinetypeTableRecord
  2
SLD-Gestrichelt
 70
     0
  3
SolidWorks Line Style
 72
    65
 73
     2
 40
1.905
 49
1.27
 74
     0
 49
-0.635
 74
     0
  0
LTYPE
  5
70
330
5
100
AcDbSymbolTableRecord
100
AcDbLinetypeTableRecord
  2
SLD-Phantom
 70
     0
  3
SolidWorks Line Style
 72
    65
 73
     6
 40
12.7
 49
6.35
 74
     0
 49
-1.27
 74
     0
 49
1.27
 74
     0
 49
-1.27
 74
     0
 49
1.27
 74
     0
 49
-1.27
 74
     0
  0
LTYPE
  5
71
330
5
100
AcDbSymbolTableRecord
100
AcDbLinetypeTableRecord
  2
SLD-Kette
 70
     0
  3
SolidWorks Line Style
 72
    65
 73
     4
 40
10.16
 49
6.35
 74
     0
 49
-1.27
 74
     0
 49
1.27
 74
     0
 49
-1.27
 74
     0
  0
LTYPE
  5
72
330
5
100
AcDbSymbolTableRecord
100
AcDbLinetypeTableRecord
  2
SLD-Punktstrich
 70
     0
  3
SolidWorks Line Style
 72
    65
 73
     4
 40
19.05
 49
15.24
 74
     0
 49
-1.27
 74
     0
 49
1.27
 74
     0
 49
-1.27
 74
     0
  0
LTYPE
  5
73
330
5
100
AcDbSymbolTableRecord
100
AcDbLinetypeTableRecord
  2
SLD-Naht
 70
     0
  3
SolidWorks Line Style
 72
    65
 73
     2
 40
0.635
 49
0.0
 74
     0
 49
-0.635
 74
     0
  0
LTYPE
  5
74
330
5
100
AcDbSymbolTableRecord
100
AcDbLinetypeTableRecord
  2
SLD-Dicke-Dünne-Kette
 70
     0
  3
SolidWorks Line Style
 72
    65
 73
     4
 40
10.16
 49
6.35
 74
     0
 49
-1.27
 74
     0
 49
1.27
 74
     0
 49
-1.27
 74
     0
  0
ENDTAB
  0
TABLE
  2
LAYER
  5
2
330
0
100
AcDbSymbolTable
 70
     1
  0
LAYER
  5
10
330
2
100
AcDbSymbolTableRecord
100
AcDbLayerTableRecord
  2
0
 70
     0
 62
     7
  6
Continuous
370
    -3
390
F
  0
ENDTAB
  0
TABLE
  2
STYLE
  5
3
330
0
100
AcDbSymbolTable
 70
     1
  0
STYLE
  5
11
330
3
100
AcDbSymbolTableRecord
100
AcDbTextStyleTableRecord
  2
Standard
 70
     0
 40
0.0
 41
1.0
 50
0.0
 71
     0
 42
3.5
  3
txt
  4

  0
ENDTAB
  0
TABLE
  2
VIEW
  5
6
330
0
100
AcDbSymbolTable
 70
     0
  0
ENDTAB
  0
TABLE
  2
UCS
  5
7
330
0
100
AcDbSymbolTable
 70
     0
  0
ENDTAB
  0
TABLE
  2
APPID
  5
9
330
0
100
AcDbSymbolTable
 70
     1
  0
APPID
  5
12
330
9
100
AcDbSymbolTableRecord
100
AcDbRegAppTableRecord
  2
ACAD
 70
     0
  0
ENDTAB
  0
TABLE
  2
DIMSTYLE
  5
A
330
0
100
AcDbSymbolTable
 70
     1
100
AcDbDimStyleTable
  0
DIMSTYLE
105
27
330
A
100
AcDbSymbolTableRecord
100
AcDbDimStyleTableRecord
  2
ISO-25
 70
     0
 41
2.5
 42
0.625
 43
3.75
 44
1.25
 73
     0
 74
     0
 77
     1
 78
     8
140
2.5
141
2.5
143
0.0393700787
147
0.625
171
     3
172
     1
178
     0
271
     2
272
     2
274
     3
278
    44
283
     0
284
     8
340
11
  0
ENDTAB
  0
TABLE
  2
BLOCK_RECORD
  5
1
330
0
100
AcDbSymbolTable
 70
     8
  0
BLOCK_RECORD
  5
1F
330
1
100
AcDbSymbolTableRecord
100
AcDbBlockTableRecord
  2
*Model_Space
340
22
  0
BLOCK_RECORD
  5
1B
330
1
100
AcDbSymbolTableRecord
100
AcDbBlockTableRecord
  2
*Paper_Space
340
1E
  0
BLOCK_RECORD
  5
23
330
1
100
AcDbSymbolTableRecord
100
AcDbBlockTableRecord
  2
*Paper_Space0
340
26
  0
BLOCK_RECORD
  5
75
330
1
100
AcDbSymbolTableRecord
100
AcDbBlockTableRecord
  2
_X9
340
0
102
{BLKREFS
331
156
102
}
  0
BLOCK_RECORD
  5
7C
330
1
100
AcDbSymbolTableRecord
100
AcDbBlockTableRecord
  2
_X6
340
0
102
{BLKREFS
331
153
102
}
  0
BLOCK_RECORD
  5
89
330
1
100
AcDbSymbolTableRecord
100
AcDbBlockTableRecord
  2
_X4
340
0
102
{BLKREFS
331
152
102
}
  0
BLOCK_RECORD
  5
9C
330
1
100
AcDbSymbolTableRecord
100
AcDbBlockTableRecord
  2
_X24
340
0
102
{BLKREFS
331
154
102
}
  0
BLOCK_RECORD
  5
C6
330
1
100
AcDbSymbolTableRecord
100
AcDbBlockTableRecord
  2
_X12
340
0
102
{BLKREFS
331
155
102
}
  0
BLOCK_RECORD
  5
CC
330
1
100
AcDbSymbolTableRecord
100
AcDbBlockTableRecord
  2
_X14
340
0
102
{BLKREFS
331
157
102
}
  0
BLOCK_RECORD
  5
D2
330
1
100
AcDbSymbolTableRecord
100
AcDbBlockTableRecord
  2
_X23
340
0
102
{BLKREFS
331
151
102
}
  0
ENDTAB
  0
ENDSEC
  0
SECTION
  2
BLOCKS
  0
BLOCK
  5
20
330
1F
100
AcDbEntity
  8
0
100
AcDbBlockBegin
  2
*Model_Space
 70
     0
 10
0.0
 20
0.0
 30
0.0
  3
*Model_Space
  1

  0
ENDBLK
  5
21
330
1F
100
AcDbEntity
  8
0
100
AcDbBlockEnd
  0
BLOCK
  5
1C
330
1B
100
AcDbEntity
 67
     1
  8
0
100
AcDbBlockBegin
  2
*Paper_Space
 70
     0
 10
0.0
 20
0.0
 30
0.0
  3
*Paper_Space
  1

  0
ENDBLK
  5
1D
330
1B
100
AcDbEntity
 67
     1
  8
0
100
AcDbBlockEnd
  0
BLOCK
  5
24
330
23
100
AcDbEntity
  8
0
100
AcDbBlockBegin
  2
*Paper_Space0
 70
     0
 10
0.0
 20
0.0
 30
0.0
  3
*Paper_Space0
  1

  0
ENDBLK
  5
25
330
23
100
AcDbEntity
  8
0
100
AcDbBlockEnd
  0
BLOCK
  5
76
330
75
100
AcDbEntity
  8
0
100
AcDbBlockBegin
  2
_X9
 70
     0
 10
0.0
 20
0.0
 30
0.0
  3
_X9
  1

  0
LINE
  5
78
330
75
100
AcDbEntity
  8
0
 62
   179
370
    15
100
AcDbLine
 10
927.731338
 20
593.975928
 30
0.0
 11
932.964282
 21
599.208866
 31
0.0
  0
LINE
  5
79
330
75
100
AcDbEntity
  8
0
 62
   179
370
    15
100
AcDbLine
 10
925.003158
 20
596.904602
 30
0.0
 11
929.377978
 21
601.279416
 31
0.0
  0
LINE
  5
7A
330
75
100
AcDbEntity
  8
0
 62
   179
370
    15
100
AcDbLine
 10
934.402678
 20
606.30411
 30
0.0
 11
935.603158
 21
607.504588
 31
0.0
  0
LINE
  5
7B
330
75
100
AcDbEntity
  8
0
 62
   179
370
    15
100
AcDbLine
 10
925.003158
 20
602.561452
 30
0.0
 11
934.745828
 21
612.30411
 31
0.0
  0
ENDBLK
  5
77
330
75
100
AcDbEntity
  8
0
100
AcDbBlockEnd
  0
BLOCK
  5
7D
330
7C
100
AcDbEntity
  8
0
100
AcDbBlockBegin
  2
_X6
 70
     0
 10
0.0
 20
0.0
 30
0.0
  3
_X6
  1

  0
LINE
  5
7F
330
7C
100
AcDbEntity
  8
0
 62
   179
370
    15
100
AcDbLine
 10
884.263918
 20
614.802636
 30
0.0
 11
891.012216
 21
608.054348
 31
0.0
  0
LINE
  5
80
330
7C
100
AcDbEntity
  8
0
 62
   179
370
    15
100
AcDbLine
 10
884.263922
 20
620.459484
 30
0.0
 11
893.840644
 21
610.882774
 31
0.0
  0
LINE
  5
81
330
7C
100
AcDbEntity
  8
0
 62
   179
370
    15
100
AcDbLine
 10
884.263926
 20
626.11633
 30
0.0
 11
885.263926
 21
625.116332
 31
0.0
  0
LINE
  5
82
330
7C
100
AcDbEntity
  8
0
 62
   179
370
    15
100
AcDbLine
 10
889.074214
 20
621.306048
 30
0.0
 11
896.669074
 21
613.711198
 31
0.0
  0
LINE
  5
83
330
7C
100
AcDbEntity
  8
0
 62
   179
370
    15
100
AcDbLine
 10
885.497494
 20
630.539614
 30
0.0
 11
888.731064
 21
627.306048
 31
0.0
  0
LINE
  5
84
330
7C
100
AcDbEntity
  8
0
 62
   179
370
    15
100
AcDbLine
 10
894.731076
 20
621.306044
 30
0.0
 11
899.26392
 21
616.773206
 31
0.0
  0
LINE
  5
85
330
7C
100
AcDbEntity
  8
0
 62
   179
370
    15
100
AcDbLine
 10
888.325922
 20
633.36804
 30
0.0
 11
894.387926
 21
627.306044
 31
0.0
  0
LINE
  5
86
330
7C
100
AcDbEntity
  8
0
 62
   179
370
    15
100
AcDbLine
 10
891.154352
 20
636.196466
 30
0.0
 11
899.349476
 21
628.001352
 31
0.0
  0
LINE
  5
87
330
7C
100
AcDbEntity
  8
0
 62
   179
370
    15
100
AcDbLine
 10
896.701632
 20
636.306042
 30
0.0
 11
900.878366
 21
632.129314
 31
0.0
  0
LINE
  5
88
330
7C
100
AcDbEntity
  8
0
 62
   179
370
    15
100
AcDbLine
 10
902.358494
 20
636.30604
 30
0.0
 11
903.57152
 21
635.093014
 31
0.0
  0
ENDBLK
  5
7E
330
7C
100
AcDbEntity
  8
0
100
AcDbBlockEnd
  0
BLOCK
  5
8A
330
89
100
AcDbEntity
  8
0
100
AcDbBlockBegin
  2
_X4
 70
     0
 10
0.0
 20
0.0
 30
0.0
  3
_X4
  1

  0
LINE
  5
8C
330
89
100
AcDbEntity
  8
0
 62
   179
370
    15
100
AcDbLine
 10
741.100534
 20
622.30569
 30
0.0
 11
745.10054
 21
626.30569
 31
0.0
  0
LINE
  5
8D
330
89
100
AcDbEntity
  8
0
 62
   179
370
    15
100
AcDbLine
 10
729.443668
 20
616.30569
 30
0.0
 11
732.26342
 21
619.12544
 31
0.0
  0
LINE
  5
8E
330
89
100
AcDbEntity
  8
0
 62
   179
370
    15
100
AcDbLine
 10
735.443676
 20
622.30569
 30
0.0
 11
739.443682
 21
626.30569
 31
0.0
  0
LINE
  5
8F
330
89
100
AcDbEntity
  8
0
 62
   179
370
    15
100
AcDbLine
 10
726.26342
 20
618.782298
 30
0.0
 11
733.786824
 21
626.30569
 31
0.0
  0
LINE
  5
90
330
89
100
AcDbEntity
  8
0
 62
   179
370
    15
100
AcDbLine
 10
716.344786
 20
614.520526
 30
0.0
 11
720.769494
 21
618.94523
 31
0.0
  0
LINE
  5
91
330
89
100
AcDbEntity
  8
0
 62
   179
370
    15
100
AcDbLine
 10
726.26342
 20
624.439148
 30
0.0
 11
731.63066
 21
629.80638
 31
0.0
  0
LINE
  5
92
330
89
100
AcDbEntity
  8
0
 62
   179
370
    15
100
AcDbLine
 10
715.889686
 20
619.722276
 30
0.0
 11
721.311864
 21
625.144448
 31
0.0
  0
LINE
  5
93
330
89
100
AcDbEntity
  8
0
 62
   179
370
    15
100
AcDbLine
 10
726.26342
 20
630.095998
 30
0.0
 11
729.43856
 21
633.271134
 31
0.0
  0
LINE
  5
94
330
89
100
AcDbEntity
  8
0
 62
   179
370
    15
100
AcDbLine
 10
704.816234
 20
614.30569
 30
0.0
 11
708.600244
 21
618.089696
 31
0.0
  0
LINE
  5
95
330
89
100
AcDbEntity
  8
0
 62
   179
370
    15
100
AcDbLine
 10
715.434584
 20
624.924028
 30
0.0
 11
726.065338
 21
635.554768
 31
0.0
  0
LINE
  5
96
330
89
100
AcDbEntity
  8
0
 62
   179
370
    15
100
AcDbLine
 10
703.363744
 20
618.510052
 30
0.0
 11
708.977366
 21
624.123668
 31
0.0
  0
LINE
  5
97
330
89
100
AcDbEntity
  8
0
 62
   179
370
    15
100
AcDbLine
 10
714.979484
 20
630.125778
 30
0.0
 11
721.159404
 21
636.30569
 31
0.0
  0
LINE
  5
98
330
89
100
AcDbEntity
  8
0
 62
   179
370
    15
100
AcDbLine
 10
703.363744
 20
624.166904
 30
0.0
 11
709.35449
 21
630.157642
 31
0.0
  0
LINE
  5
99
330
89
100
AcDbEntity
  8
0
 62
   179
370
    15
100
AcDbLine
 10
709.50254
 20
630.30569
 30
0.0
 11
715.502548
 21
636.30569
 31
0.0
  0
LINE
  5
9A
330
89
100
AcDbEntity
  8
0
 62
   179
370
    15
100
AcDbLine
 10
703.363744
 20
629.823754
 30
0.0
 11
709.84569
 21
636.30569
 31
0.0
  0
LINE
  5
9B
330
89
100
AcDbEntity
  8
0
 62
   179
370
    15
100
AcDbLine
 10
703.363744
 20
635.480604
 30
0.0
 11
704.188832
 21
636.30569
 31
0.0
  0
ENDBLK
  5
8B
330
89
100
AcDbEntity
  8
0
100
AcDbBlockEnd
  0
BLOCK
  5
9D
330
9C
100
AcDbEntity
  8
0
100
AcDbBlockBegin
  2
_X24
 70
     0
 10
0.0
 20
0.0
 30
0.0
  3
_X24
  1

  0
LINE
  5
9F
330
9C
100
AcDbEntity
  8
0
 62
   179
370
    15
100
AcDbLine
 10
562.08289
 20
568.30543
 30
0.0
 11
562.438866
 21
568.661404
 31
0.0
  0
LINE
  5
A0
330
9C
100
AcDbEntity
  8
0
 62
   179
370
    15
100
AcDbLine
 10
561.517206
 20
568.30543
 30
0.0
 11
562.438866
 21
569.22709
 31
0.0
  0
LINE
  5
A1
330
9C
100
AcDbEntity
  8
0
 62
   179
370
    15
100
AcDbLine
 10
560.95152
 20
568.30543
 30
0.0
 11
562.438866
 21
569.792776
 31
0.0
  0
LINE
  5
A2
330
9C
100
AcDbEntity
  8
0
 62
   179
370
    15
100
AcDbLine
 10
560.385834
 20
568.30543
 30
0.0
 11
562.438866
 21
570.358462
 31
0.0
  0
LINE
  5
A3
330
9C
100
AcDbEntity
  8
0
 62
   179
370
    15
100
AcDbLine
 10
559.82015
 20
568.30543
 30
0.0
 11
562.438866
 21
570.924146
 31
0.0
  0
LINE
  5
A4
330
9C
100
AcDbEntity
  8
0
 62
   179
370
    15
100
AcDbLine
 10
559.254464
 20
568.30543
 30
0.0
 11
562.438866
 21
571.489832
 31
0.0
  0
LINE
  5
A5
330
9C
100
AcDbEntity
  8
0
 62
   179
370
    15
100
AcDbLine
 10
558.688778
 20
568.30543
 30
0.0
 11
562.438866
 21
572.055518
 31
0.0
  0
LINE
  5
A6
330
9C
100
AcDbEntity
  8
0
 62
   179
370
    15
100
AcDbLine
 10
558.123092
 20
568.30543
 30
0.0
 11
562.438866
 21
572.621202
 31
0.0
  0
LINE
  5
A7
330
9C
100
AcDbEntity
  8
0
 62
   179
370
    15
100
AcDbLine
 10
557.557408
 20
568.30543
 30
0.0
 11
562.438866
 21
573.186888
 31
0.0
  0
LINE
  5
A8
330
9C
100
AcDbEntity
  8
0
 62
   179
370
    15
100
AcDbLine
 10
556.991722
 20
568.30543
 30
0.0
 11
562.438866
 21
573.752574
 31
0.0
  0
LINE
  5
A9
330
9C
100
AcDbEntity
  8
0
 62
   179
370
    15
100
AcDbLine
 10
556.438866
 20
568.31826
 30
0.0
 11
562.438866
 21
574.31826
 31
0.0
  0
LINE
  5
AA
330
9C
100
AcDbEntity
  8
0
 62
   179
370
    15
100
AcDbLine
 10
556.438866
 20
568.883944
 30
0.0
 11
562.438866
 21
574.883944
 31
0.0
  0
LINE
  5
AB
330
9C
100
AcDbEntity
  8
0
 62
   179
370
    15
100
AcDbLine
 10
556.438866
 20
569.44963
 30
0.0
 11
562.438866
 21
575.44963
 31
0.0
  0
LINE
  5
AC
330
9C
100
AcDbEntity
  8
0
 62
   179
370
    15
100
AcDbLine
 10
556.438866
 20
570.015316
 30
0.0
 11
562.438866
 21
576.015316
 31
0.0
  0
LINE
  5
AD
330
9C
100
AcDbEntity
  8
0
 62
   179
370
    15
100
AcDbLine
 10
556.438866
 20
570.581
 30
0.0
 11
562.438866
 21
576.581
 31
0.0
  0
LINE
  5
AE
330
9C
100
AcDbEntity
  8
0
 62
   179
370
    15
100
AcDbLine
 10
556.438866
 20
571.146686
 30
0.0
 11
562.438866
 21
577.146686
 31
0.0
  0
LINE
  5
AF
330
9C
100
AcDbEntity
  8
0
 62
   179
370
    15
100
AcDbLine
 10
556.438866
 20
571.712372
 30
0.0
 11
562.438866
 21
577.712372
 31
0.0
  0
LINE
  5
B0
330
9C
100
AcDbEntity
  8
0
 62
   179
370
    15
100
AcDbLine
 10
556.438866
 20
572.278058
 30
0.0
 11
562.438866
 21
578.278058
 31
0.0
  0
LINE
  5
B1
330
9C
100
AcDbEntity
  8
0
 62
   179
370
    15
100
AcDbLine
 10
556.438866
 20
572.843742
 30
0.0
 11
562.438866
 21
578.843742
 31
0.0
  0
LINE
  5
B2
330
9C
100
AcDbEntity
  8
0
 62
   179
370
    15
100
AcDbLine
 10
556.438866
 20
573.409428
 30
0.0
 11
562.438866
 21
579.409428
 31
0.0
  0
LINE
  5
B3
330
9C
100
AcDbEntity
  8
0
 62
   179
370
    15
100
AcDbLine
 10
556.438866
 20
573.975114
 30
0.0
 11
562.438866
 21
579.975114
 31
0.0
  0
LINE
  5
B4
330
9C
100
AcDbEntity
  8
0
 62
   179
370
    15
100
AcDbLine
 10
556.438866
 20
574.540798
 30
0.0
 11
562.438866
 21
580.540798
 31
0.0
  0
LINE
  5
B5
330
9C
100
AcDbEntity
  8
0
 62
   179
370
    15
100
AcDbLine
 10
556.438866
 20
575.106484
 30
0.0
 11
562.438866
 21
581.106484
 31
0.0
  0
LINE
  5
B6
330
9C
100
AcDbEntity
  8
0
 62
   179
370
    15
100
AcDbLine
 10
556.438866
 20
575.67217
 30
0.0
 11
562.438866
 21
581.67217
 31
0.0
  0
LINE
  5
B7
330
9C
100
AcDbEntity
  8
0
 62
   179
370
    15
100
AcDbLine
 10
556.438866
 20
576.237856
 30
0.0
 11
562.438866
 21
582.237856
 31
0.0
  0
LINE
  5
B8
330
9C
100
AcDbEntity
  8
0
 62
   179
370
    15
100
AcDbLine
 10
556.438866
 20
576.80354
 30
0.0
 11
562.438866
 21
582.80354
 31
0.0
  0
LINE
  5
B9
330
9C
100
AcDbEntity
  8
0
 62
   179
370
    15
100
AcDbLine
 10
556.438866
 20
577.369226
 30
0.0
 11
562.438866
 21
583.369226
 31
0.0
  0
LINE
  5
BA
330
9C
100
AcDbEntity
  8
0
 62
   179
370
    15
100
AcDbLine
 10
556.438866
 20
577.934912
 30
0.0
 11
562.438866
 21
583.934912
 31
0.0
  0
LINE
  5
BB
330
9C
100
AcDbEntity
  8
0
 62
   179
370
    15
100
AcDbLine
 10
556.438866
 20
578.500596
 30
0.0
 11
562.243698
 21
584.30543
 31
0.0
  0
LINE
  5
BC
330
9C
100
AcDbEntity
  8
0
 62
   179
370
    15
100
AcDbLine
 10
556.438866
 20
579.066282
 30
0.0
 11
561.678014
 21
584.30543
 31
0.0
  0
LINE
  5
BD
330
9C
100
AcDbEntity
  8
0
 62
   179
370
    15
100
AcDbLine
 10
556.438866
 20
579.631968
 30
0.0
 11
561.112328
 21
584.30543
 31
0.0
  0
LINE
  5
BE
330
9C
100
AcDbEntity
  8
0
 62
   179
370
    15
100
AcDbLine
 10
556.438866
 20
580.197654
 30
0.0
 11
560.546642
 21
584.30543
 31
0.0
  0
LINE
  5
BF
330
9C
100
AcDbEntity
  8
0
 62
   179
370
    15
100
AcDbLine
 10
556.438866
 20
580.763338
 30
0.0
 11
559.980958
 21
584.30543
 31
0.0
  0
LINE
  5
C0
330
9C
100
AcDbEntity
  8
0
 62
   179
370
    15
100
AcDbLine
 10
556.438866
 20
581.329024
 30
0.0
 11
559.415272
 21
584.30543
 31
0.0
  0
LINE
  5
C1
330
9C
100
AcDbEntity
  8
0
 62
   179
370
    15
100
AcDbLine
 10
556.438866
 20
581.89471
 30
0.0
 11
558.849586
 21
584.30543
 31
0.0
  0
LINE
  5
C2
330
9C
100
AcDbEntity
  8
0
 62
   179
370
    15
100
AcDbLine
 10
556.438866
 20
582.460394
 30
0.0
 11
558.2839
 21
584.30543
 31
0.0
  0
LINE
  5
C3
330
9C
100
AcDbEntity
  8
0
 62
   179
370
    15
100
AcDbLine
 10
556.438866
 20
583.02608
 30
0.0
 11
557.718216
 21
584.30543
 31
0.0
  0
LINE
  5
C4
330
9C
100
AcDbEntity
  8
0
 62
   179
370
    15
100
AcDbLine
 10
556.438866
 20
583.591766
 30
0.0
 11
557.15253
 21
584.30543
 31
0.0
  0
LINE
  5
C5
330
9C
100
AcDbEntity
  8
0
 62
   179
370
    15
100
AcDbLine
 10
556.438866
 20
584.157452
 30
0.0
 11
556.586844
 21
584.30543
 31
0.0
  0
ENDBLK
  5
9E
330
9C
100
AcDbEntity
  8
0
100
AcDbBlockEnd
  0
BLOCK
  5
C7
330
C6
100
AcDbEntity
  8
0
100
AcDbBlockBegin
  2
_X12
 70
     0
 10
0.0
 20
0.0
 30
0.0
  3
_X12
  1

  0
LINE
  5
C9
330
C6
100
AcDbEntity
  8
0
 62
   179
370
    15
100
AcDbLine
 10
1055.609546
 20
647.103854
 30
0.0
 11
1058.68835
 21
644.025054
 31
0.0
  0
LINE
  5
CA
330
C6
100
AcDbEntity
  8
0
 62
   179
370
    15
100
AcDbLine
 10
1058.35176
 20
650.018494
 30
0.0
 11
1063.89015
 21
644.480112
 31
0.0
  0
LINE
  5
CB
330
C6
100
AcDbEntity
  8
0
 62
   179
370
    15
100
AcDbLine
 10
1063.553554
 20
650.473558
 30
0.0
 11
1067.725534
 21
646.301584
 31
0.0
  0
ENDBLK
  5
C8
330
C6
100
AcDbEntity
  8
0
100
AcDbBlockEnd
  0
BLOCK
  5
CD
330
CC
100
AcDbEntity
  8
0
100
AcDbBlockBegin
  2
_X14
 70
     0
 10
0.0
 20
0.0
 30
0.0
  3
_X14
  1

  0
LINE
  5
CF
330
CC
100
AcDbEntity
  8
0
 62
   179
370
    15
100
AcDbLine
 10
1136.37534
 20
656.847776
 30
0.0
 11
1141.913712
 21
651.30941
 31
0.0
  0
LINE
  5
D0
330
CC
100
AcDbEntity
  8
0
 62
   179
370
    15
100
AcDbLine
 10
1141.577108
 20
657.302866
 30
0.0
 11
1147.11548
 21
651.7645
 31
0.0
  0
LINE
  5
D1
330
CC
100
AcDbEntity
  8
0
 62
   179
370
    15
100
AcDbLine
 10
1146.778874
 20
657.757956
 30
0.0
 11
1147.311384
 21
657.225446
 31
0.0
  0
ENDBLK
  5
CE
330
CC
100
AcDbEntity
  8
0
100
AcDbBlockEnd
  0
BLOCK
  5
D3
330
D2
100
AcDbEntity
  8
0
100
AcDbBlockBegin
  2
_X23
 70
     0
 10
0.0
 20
0.0
 30
0.0
  3
_X23
  1

  0
LINE
  5
D5
330
D2
100
AcDbEntity
  8
0
 62
   179
370
    15
100
AcDbLine
 10
562.015446
 20
702.30543
 30
0.0
 11
562.438866
 21
702.72885
 31
0.0
  0
LINE
  5
D6
330
D2
100
AcDbEntity
  8
0
 62
   179
370
    15
100
AcDbLine
 10
561.44976
 20
702.30543
 30
0.0
 11
562.438866
 21
703.294536
 31
0.0
  0
LINE
  5
D7
330
D2
100
AcDbEntity
  8
0
 62
   179
370
    15
100
AcDbLine
 10
560.884074
 20
702.30543
 30
0.0
 11
562.438866
 21
703.860222
 31
0.0
  0
LINE
  5
D8
330
D2
100
AcDbEntity
  8
0
 62
   179
370
    15
100
AcDbLine
 10
560.318388
 20
702.30543
 30
0.0
 11
562.438866
 21
704.425906
 31
0.0
  0
LINE
  5
D9
330
D2
100
AcDbEntity
  8
0
 62
   179
370
    15
100
AcDbLine
 10
559.752704
 20
702.30543
 30
0.0
 11
562.438866
 21
704.991592
 31
0.0
  0
LINE
  5
DA
330
D2
100
AcDbEntity
  8
0
 62
   179
370
    15
100
AcDbLine
 10
559.187018
 20
702.30543
 30
0.0
 11
562.438866
 21
705.557278
 31
0.0
  0
LINE
  5
DB
330
D2
100
AcDbEntity
  8
0
 62
   179
370
    15
100
AcDbLine
 10
558.621332
 20
702.30543
 30
0.0
 11
562.438866
 21
706.122964
 31
0.0
  0
LINE
  5
DC
330
D2
100
AcDbEntity
  8
0
 62
   179
370
    15
100
AcDbLine
 10
558.055648
 20
702.30543
 30
0.0
 11
562.438866
 21
706.688648
 31
0.0
  0
LINE
  5
DD
330
D2
100
AcDbEntity
  8
0
 62
   179
370
    15
100
AcDbLine
 10
557.489962
 20
702.30543
 30
0.0
 11
562.438866
 21
707.254334
 31
0.0
  0
LINE
  5
DE
330
D2
100
AcDbEntity
  8
0
 62
   179
370
    15
100
AcDbLine
 10
556.924276
 20
702.30543
 30
0.0
 11
562.438866
 21
707.82002
 31
0.0
  0
LINE
  5
DF
330
D2
100
AcDbEntity
  8
0
 62
   179
370
    15
100
AcDbLine
 10
556.438866
 20
702.385704
 30
0.0
 11
562.438866
 21
708.385704
 31
0.0
  0
LINE
  5
E0
330
D2
100
AcDbEntity
  8
0
 62
   179
370
    15
100
AcDbLine
 10
556.438866
 20
702.95139
 30
0.0
 11
562.438866
 21
708.95139
 31
0.0
  0
LINE
  5
E1
330
D2
100
AcDbEntity
  8
0
 62
   179
370
    15
100
AcDbLine
 10
556.438866
 20
703.517076
 30
0.0
 11
562.438866
 21
709.517076
 31
0.0
  0
LINE
  5
E2
330
D2
100
AcDbEntity
  8
0
 62
   179
370
    15
100
AcDbLine
 10
556.438866
 20
704.082762
 30
0.0
 11
562.438866
 21
710.082762
 31
0.0
  0
LINE
  5
E3
330
D2
100
AcDbEntity
  8
0
 62
   179
370
    15
100
AcDbLine
 10
556.438866
 20
704.648446
 30
0.0
 11
562.438866
 21
710.648446
 31
0.0
  0
LINE
  5
E4
330
D2
100
AcDbEntity
  8
0
 62
   179
370
    15
100
AcDbLine
 10
556.438866
 20
705.214132
 30
0.0
 11
562.438866
 21
711.214132
 31
0.0
  0
LINE
  5
E5
330
D2
100
AcDbEntity
  8
0
 62
   179
370
    15
100
AcDbLine
 10
556.438866
 20
705.779818
 30
0.0
 11
562.438866
 21
711.779818
 31
0.0
  0
LINE
  5
E6
330
D2
100
AcDbEntity
  8
0
 62
   179
370
    15
100
AcDbLine
 10
556.438866
 20
706.345502
 30
0.0
 11
562.438866
 21
712.345502
 31
0.0
  0
LINE
  5
E7
330
D2
100
AcDbEntity
  8
0
 62
   179
370
    15
100
AcDbLine
 10
556.438866
 20
706.911188
 30
0.0
 11
562.438866
 21
712.911188
 31
0.0
  0
LINE
  5
E8
330
D2
100
AcDbEntity
  8
0
 62
   179
370
    15
100
AcDbLine
 10
556.438866
 20
707.476874
 30
0.0
 11
562.438866
 21
713.476874
 31
0.0
  0
LINE
  5
E9
330
D2
100
AcDbEntity
  8
0
 62
   179
370
    15
100
AcDbLine
 10
556.438866
 20
708.04256
 30
0.0
 11
562.438866
 21
714.04256
 31
0.0
  0
LINE
  5
EA
330
D2
100
AcDbEntity
  8
0
 62
   179
370
    15
100
AcDbLine
 10
556.438866
 20
708.608244
 30
0.0
 11
562.438866
 21
714.608244
 31
0.0
  0
LINE
  5
EB
330
D2
100
AcDbEntity
  8
0
 62
   179
370
    15
100
AcDbLine
 10
556.438866
 20
709.17393
 30
0.0
 11
562.438866
 21
715.17393
 31
0.0
  0
LINE
  5
EC
330
D2
100
AcDbEntity
  8
0
 62
   179
370
    15
100
AcDbLine
 10
556.438866
 20
709.739616
 30
0.0
 11
562.438866
 21
715.739616
 31
0.0
  0
LINE
  5
ED
330
D2
100
AcDbEntity
  8
0
 62
   179
370
    15
100
AcDbLine
 10
556.438866
 20
710.3053
 30
0.0
 11
562.438866
 21
716.3053
 31
0.0
  0
LINE
  5
EE
330
D2
100
AcDbEntity
  8
0
 62
   179
370
    15
100
AcDbLine
 10
556.438866
 20
710.870986
 30
0.0
 11
562.438866
 21
716.870986
 31
0.0
  0
LINE
  5
EF
330
D2
100
AcDbEntity
  8
0
 62
   179
370
    15
100
AcDbLine
 10
556.438866
 20
711.436672
 30
0.0
 11
562.438866
 21
717.436672
 31
0.0
  0
LINE
  5
F0
330
D2
100
AcDbEntity
  8
0
 62
   179
370
    15
100
AcDbLine
 10
556.438866
 20
712.002358
 30
0.0
 11
562.438866
 21
718.002358
 31
0.0
  0
LINE
  5
F1
330
D2
100
AcDbEntity
  8
0
 62
   179
370
    15
100
AcDbLine
 10
556.438866
 20
712.568042
 30
0.0
 11
562.176254
 21
718.30543
 31
0.0
  0
LINE
  5
F2
330
D2
100
AcDbEntity
  8
0
 62
   179
370
    15
100
AcDbLine
 10
556.438866
 20
713.133728
 30
0.0
 11
561.610568
 21
718.30543
 31
0.0
  0
LINE
  5
F3
330
D2
100
AcDbEntity
  8
0
 62
   179
370
    15
100
AcDbLine
 10
556.438866
 20
713.699414
 30
0.0
 11
561.044882
 21
718.30543
 31
0.0
  0
LINE
  5
F4
330
D2
100
AcDbEntity
  8
0
 62
   179
370
    15
100
AcDbLine
 10
556.438866
 20
714.265098
 30
0.0
 11
560.479196
 21
718.30543
 31
0.0
  0
LINE
  5
F5
330
D2
100
AcDbEntity
  8
0
 62
   179
370
    15
100
AcDbLine
 10
556.438866
 20
714.830784
 30
0.0
 11
559.913512
 21
718.30543
 31
0.0
  0
LINE
  5
F6
330
D2
100
AcDbEntity
  8
0
 62
   179
370
    15
100
AcDbLine
 10
556.438866
 20
715.39647
 30
0.0
 11
559.347826
 21
718.30543
 31
0.0
  0
LINE
  5
F7
330
D2
100
AcDbEntity
  8
0
 62
   179
370
    15
100
AcDbLine
 10
556.438866
 20
715.962156
 30
0.0
 11
558.78214
 21
718.30543
 31
0.0
  0
LINE
  5
F8
330
D2
100
AcDbEntity
  8
0
 62
   179
370
    15
100
AcDbLine
 10
556.438866
 20
716.52784
 30
0.0
 11
558.216456
 21
718.30543
 31
0.0
  0
LINE
  5
F9
330
D2
100
AcDbEntity
  8
0
 62
   179
370
    15
100
AcDbLine
 10
556.438866
 20
717.093526
 30
0.0
 11
557.65077
 21
718.30543
 31
0.0
  0
LINE
  5
FA
330
D2
100
AcDbEntity
  8
0
 62
   179
370
    15
100
AcDbLine
 10
556.438866
 20
717.659212
 30
0.0
 11
557.085084
 21
718.30543
 31
0.0
  0
LINE
  5
FB
330
D2
100
AcDbEntity
  8
0
 62
   179
370
    15
100
AcDbLine
 10
556.438866
 20
718.224896
 30
0.0
 11
556.519398
 21
718.30543
 31
0.0
  0
ENDBLK
  5
D4
330
D2
100
AcDbEntity
  8
0
100
AcDbBlockEnd
  0
ENDSEC
  0
SECTION
  2
ENTITIES
  0
LINE
  5
FC
330
1F
100
AcDbEntity
  8
0
 62
     7
370
    40
100
AcDbLine
 10
177.340936
 20
158.3264225
 30
0.0
 11
177.090936
 21
154.3264225
 31
0.0
  0
LINE
  5
FD
330
1F
100
AcDbEntity
  8
0
 62
     7
370
    40
100
AcDbLine
 10
177.090936
 20
154.3264225
 30
0.0
 11
175.840936
 21
154.3264225
 31
0.0
  0
LINE
  5
FE
330
1F
100
AcDbEntity
  8
0
 62
     7
370
    40
100
AcDbLine
 10
175.840936
 20
154.3264225
 30
0.0
 11
175.840936
 21
159.8264225
 31
0.0
  0
LINE
  5
FF
330
1F
100
AcDbEntity
  8
0
 62
     7
370
    40
100
AcDbLine
 10
177.340936
 20
158.3264225
 30
0.0
 11
178.740936
 21
158.3264225
 31
0.0
  0
LINE
  5
100
330
1F
100
AcDbEntity
  8
0
 62
     7
370
    40
100
AcDbLine
 10
178.740936
 20
158.3264225
 30
0.0
 11
179.0908955
 21
154.3264225
 31
0.0
  0
LINE
  5
101
330
1F
100
AcDbEntity
  8
0
 62
     7
370
    40
100
AcDbLine
 10
179.0908955
 20
154.3264225
 30
0.0
 11
180.0908955
 21
154.3264225
 31
0.0
  0
LINE
  5
102
330
1F
100
AcDbEntity
  8
0
 62
     7
370
    40
100
AcDbLine
 10
180.0908955
 20
154.3264225
 30
0.0
 11
180.440855
 21
158.3264225
 31
0.0
  0
LINE
  5
103
330
1F
100
AcDbEntity
  8
0
 62
     7
370
    40
100
AcDbLine
 10
180.440855
 20
158.3264225
 30
0.0
 11
181.565855
 21
158.3264225
 31
0.0
  0
LINE
  5
104
330
1F
100
AcDbEntity
  8
0
 62
     7
370
    40
100
AcDbLine
 10
181.565855
 20
158.3264225
 30
0.0
 11
181.565855
 21
154.8264225
 31
0.0
  0
LINE
  5
105
330
1F
100
AcDbEntity
  8
0
 62
     7
370
    40
100
AcDbLine
 10
181.565855
 20
154.8264225
 30
0.0
 11
183.065855
 21
154.8264225
 31
0.0
  0
LINE
  5
106
330
1F
100
AcDbEntity
  8
0
 62
     7
370
    40
100
AcDbLine
 10
183.065855
 20
154.8264225
 30
0.0
 11
183.065855
 21
156.3264225
 31
0.0
  0
LINE
  5
107
330
1F
100
AcDbEntity
  8
0
 62
     7
370
    40
100
AcDbLine
 10
183.065855
 20
156.3264225
 30
0.0
 11
186.565855
 21
156.3264225
 31
0.0
  0
LINE
  5
108
330
1F
100
AcDbEntity
  8
0
 62
     7
370
    40
100
AcDbLine
 10
186.565855
 20
156.3264225
 30
0.0
 11
186.565855
 21
157.3264225
 31
0.0
  0
LINE
  5
109
330
1F
100
AcDbEntity
  8
0
 62
     7
370
    40
100
AcDbLine
 10
186.565855
 20
157.3264225
 30
0.0
 11
183.065855
 21
157.3264225
 31
0.0
  0
LINE
  5
10A
330
1F
100
AcDbEntity
  8
0
  6
SLD-Punktstrich
 62
     7
370
    15
100
AcDbLine
 10
240.065855
 20
140.7678575
 30
0.0
 11
240.065855
 21
185.526399
 31
0.0
  0
LINE
  5
10B
330
1F
100
AcDbEntity
  8
0
 62
     7
370
    40
100
AcDbLine
 10
175.840936
 20
159.8264225
 30
0.0
 11
180.5658583161
 21
159.8264225
 31
0.0
  0
LINE
  5
10C
330
1F
100
AcDbEntity
  8
0
 62
     7
370
    40
100
AcDbLine
 10
224.8159805
 20
156.0765105
 30
0.0
 11
221.3159805
 21
156.0765125
 31
0.0
  0
LINE
  5
10D
330
1F
100
AcDbEntity
  8
0
 62
     7
370
    40
100
AcDbLine
 10
221.3159805
 20
156.0765125
 30
0.0
 11
221.3159815
 21
157.5765125
 31
0.0
  0
LINE
  5
10E
330
1F
100
AcDbEntity
  8
0
 62
     7
370
    40
100
AcDbLine
 10
224.81598
 20
154.8265105
 30
0.0
 11
224.8159805
 21
156.0765105
 31
0.0
  0
LINE
  5
10F
330
1F
100
AcDbEntity
  8
0
 62
     7
370
    40
100
AcDbLine
 10
224.81598
 20
154.8265105
 30
0.0
 11
222.3159785
 21
152.326512
 31
0.0
  0
LINE
  5
110
330
1F
100
AcDbEntity
  8
0
 62
     7
370
    40
100
AcDbLine
 10
221.0659795
 20
154.076513
 30
0.0
 11
221.0659815
 21
157.5765125
 31
0.0
  0
LINE
  5
111
330
1F
100
AcDbEntity
  8
0
 62
     7
370
    40
100
AcDbLine
 10
222.3159785
 20
152.326512
 30
0.0
 11
221.0659795
 21
154.076513
 31
0.0
  0
LINE
  5
112
330
1F
100
AcDbEntity
  8
0
 62
     7
370
    40
100
AcDbLine
 10
221.3159815
 20
157.5765125
 30
0.0
 11
224.8159895
 21
157.5765105
 31
0.0
  0
LINE
  5
113
330
1F
100
AcDbEntity
  8
0
 62
     7
370
    40
100
AcDbLine
 10
221.065982
 20
158.0765125
 30
0.0
 11
222.815983
 21
159.8265115
 31
0.0
  0
LINE
  5
114
330
1F
100
AcDbEntity
  8
0
 62
     7
370
    40
100
AcDbLine
 10
222.815983
 20
159.8265115
 30
0.0
 11
226.393379
 21
159.826509
 31
0.0
  0
LINE
  5
115
330
1F
100
AcDbEntity
  8
0
 62
     7
370
    40
100
AcDbLine
 10
221.0659815
 20
157.5765125
 30
0.0
 11
221.065982
 21
158.0765125
 31
0.0
  0
LINE
  5
116
330
1F
100
AcDbEntity
  8
0
 62
     7
370
    40
100
AcDbLine
 10
255.707894
 20
182.826537
 30
0.0
 11
255.6909983229
 21
182.826537
 31
0.0
  0
LINE
  5
117
330
1F
100
AcDbEntity
  8
0
 62
     7
370
    40
100
AcDbLine
 10
224.42396
 20
182.8264225
 30
0.0
 11
224.4408551658
 21
182.8264225
 31
0.0
  0
LINE
  5
118
330
1F
100
AcDbEntity
  8
0
 62
     7
370
    40
100
AcDbLine
 10
232.2507895
 20
152.3260275
 30
0.0
 11
233.9007895
 21
152.3260275
 31
0.0
  0
LINE
  5
119
330
1F
100
AcDbEntity
  8
0
 62
     7
370
    40
100
AcDbLine
 10
232.1507895
 20
151.239425
 30
0.0
 11
232.1507895
 21
152.2260277653
 31
0.0
  0
LINE
  5
11A
330
1F
100
AcDbEntity
  8
0
 62
     7
370
    40
100
AcDbLine
 10
234.3157895
 20
149.9317275
 30
0.0
 11
232.200789308
 21
151.1528225705
 31
0.0
  0
LINE
  5
11B
330
1F
100
AcDbEntity
  8
0
 62
     7
370
    40
100
AcDbLine
 10
250.880543
 20
152.325647
 30
0.0
 11
249.2310445
 21
152.3256435
 31
0.0
  0
LINE
  5
11C
330
1F
100
AcDbEntity
  8
0
 62
     7
370
    40
100
AcDbLine
 10
250.980545
 20
151.2390441736
 30
0.0
 11
250.980543
 21
152.2256472042
 31
0.0
  0
LINE
  5
11D
330
1F
100
AcDbEntity
  8
0
 62
     7
370
    40
100
AcDbLine
 10
248.8154815
 20
149.87357
 30
0.0
 11
248.8154815
 21
148.6761485
 31
0.0
  0
LINE
  5
11E
330
1F
100
AcDbEntity
  8
0
 62
     7
370
    40
100
AcDbLine
 10
248.8654813897
 20
149.9601724767
 30
0.0
 11
250.9305451375
 21
151.152442039
 31
0.0
  0
LINE
  5
11F
330
1F
100
AcDbEntity
  8
0
 62
     7
370
    40
100
AcDbLine
 10
233.9007895
 20
152.3260275
 30
0.0
 11
233.9007895
 21
153.8260275
 31
0.0
  0
LINE
  5
120
330
1F
100
AcDbEntity
  8
0
 62
     7
370
    40
100
AcDbLine
 10
233.9007895
 20
153.8260275
 30
0.0
 11
232.4007895
 21
153.8260275
 31
0.0
  0
LINE
  5
121
330
1F
100
AcDbEntity
  8
0
 62
     7
370
    40
100
AcDbLine
 10
232.4007895
 20
153.8260275
 30
0.0
 11
232.1507895
 21
153.8260275
 31
0.0
  0
LINE
  5
122
330
1F
100
AcDbEntity
  8
0
 62
     7
370
    40
100
AcDbLine
 10
232.1507895
 20
153.8260275
 30
0.0
 11
231.2507895
 21
152.9260275
 31
0.0
  0
LINE
  5
123
330
1F
100
AcDbEntity
  8
0
 62
     7
370
    40
100
AcDbLine
 10
231.2507895
 20
152.9260275
 30
0.0
 11
231.2507895
 21
149.9260275
 31
0.0
  0
LINE
  5
124
330
1F
100
AcDbEntity
  8
0
 62
     7
370
    40
100
AcDbLine
 10
231.2507895
 20
149.9260275
 30
0.0
 11
232.5007895
 21
148.6760275
 31
0.0
  0
LINE
  5
125
330
1F
100
AcDbEntity
  8
0
 62
     7
370
    40
100
AcDbLine
 10
232.5007895
 20
148.6760275
 30
0.0
 11
234.2507895
 21
148.6760275
 31
0.0
  0
LINE
  5
126
330
1F
100
AcDbEntity
  8
0
 62
     7
370
    40
100
AcDbLine
 10
234.2507895
 20
148.6760275
 30
0.0
 11
234.3157895
 21
148.6760275
 31
0.0
  0
LINE
  5
127
330
1F
100
AcDbEntity
  8
0
 62
     7
370
    40
100
AcDbLine
 10
234.3157895
 20
148.6760275
 30
0.0
 11
234.3157895
 21
149.9317275
 31
0.0
  0
LINE
  5
128
330
1F
100
AcDbEntity
  8
0
 62
     7
370
    40
100
AcDbLine
 10
249.2310455
 20
153.826148
 30
0.0
 11
250.7310455
 21
153.826147
 31
0.0
  0
LINE
  5
129
330
1F
100
AcDbEntity
  8
0
 62
     7
370
    40
100
AcDbLine
 10
249.2310445
 20
152.326148
 30
0.0
 11
249.2310455
 21
153.826148
 31
0.0
  0
LINE
  5
12A
330
1F
100
AcDbEntity
  8
0
 62
     7
370
    40
100
AcDbLine
 10
251.881045
 20
152.9261465
 30
0.0
 11
251.881043
 21
149.9261465
 31
0.0
  0
LINE
  5
12B
330
1F
100
AcDbEntity
  8
0
 62
     7
370
    40
100
AcDbLine
 10
250.9810455
 20
153.826147
 30
0.0
 11
251.881045
 21
152.9261465
 31
0.0
  0
LINE
  5
12C
330
1F
100
AcDbEntity
  8
0
 62
     7
370
    40
100
AcDbLine
 10
250.7310455
 20
153.826147
 30
0.0
 11
250.9810455
 21
153.826147
 31
0.0
  0
LINE
  5
12D
330
1F
100
AcDbEntity
  8
0
 62
     7
370
    40
100
AcDbLine
 10
248.816042
 20
148.6761485
 30
0.0
 11
248.8160425
 21
149.6761485
 31
0.0
  0
LINE
  5
12E
330
1F
100
AcDbEntity
  8
0
 62
     7
370
    40
100
AcDbLine
 10
250.631042
 20
148.6761475
 30
0.0
 11
248.881042
 21
148.6761485
 31
0.0
  0
LINE
  5
12F
330
1F
100
AcDbEntity
  8
0
 62
     7
370
    40
100
AcDbLine
 10
251.881043
 20
149.9261465
 30
0.0
 11
250.631042
 21
148.6761475
 31
0.0
  0
LINE
  5
130
330
1F
100
AcDbEntity
  8
0
 62
     7
370
    15
100
AcDbLine
 10
250.3987105
 20
148.6761475
 30
0.0
 11
251.881043
 21
150.158478
 31
0.0
  0
LINE
  5
131
330
1F
100
AcDbEntity
  8
0
 62
     7
370
    15
100
AcDbLine
 10
248.984497
 20
148.6761485
 30
0.0
 11
251.881044
 21
151.5726915
 31
0.0
  0
LINE
  5
132
330
1F
100
AcDbEntity
  8
0
 62
     7
370
    15
100
AcDbLine
 10
250.9805435
 20
152.0864045
 30
0.0
 11
251.8506655
 21
152.956526
 31
0.0
  0
LINE
  5
133
330
1F
100
AcDbEntity
  8
0
 62
     7
370
    15
100
AcDbLine
 10
249.805569
 20
152.325645
 30
0.0
 11
251.143559
 21
153.663633
 31
0.0
  0
LINE
  5
134
330
1F
100
AcDbEntity
  8
0
 62
     7
370
    15
100
AcDbLine
 10
249.231045
 20
153.165334
 30
0.0
 11
249.8918595
 21
153.8261475
 31
0.0
  0
LINE
  5
135
330
1F
100
AcDbEntity
  8
0
 62
     7
370
    40
100
AcDbLine
 10
283.826699
 20
164.938573
 30
0.0
 11
286.815276
 21
165.200036
 31
0.0
  0
LINE
  5
136
330
1F
100
AcDbEntity
  8
0
 62
     7
370
    40
100
AcDbLine
 10
266.963635
 20
161.956729
 30
0.0
 11
263.975056
 21
161.6952865
 31
0.0
  0
LINE
  5
137
330
1F
100
AcDbEntity
  8
0
 62
     7
370
    40
100
AcDbLine
 10
266.963635
 20
161.956729
 30
0.0
 11
266.8329115
 21
163.4510185
 31
0.0
  0
LINE
  5
138
330
1F
100
AcDbEntity
  8
0
 62
     7
370
    40
100
AcDbLine
 10
266.8329115
 20
163.4510185
 30
0.0
 11
263.844333
 21
163.189571
 31
0.0
  0
LINE
  5
139
330
1F
100
AcDbEntity
  8
0
 62
     7
370
    40
100
AcDbLine
 10
263.975056
 20
161.6952865
 30
0.0
 11
263.844333
 21
163.189571
 31
0.0
  0
LINE
  5
13A
330
1F
100
AcDbEntity
  8
0
 62
     7
370
    40
100
AcDbLine
 10
266.963635
 20
161.956729
 30
0.0
 11
266.9200605
 21
162.4548255
 31
0.0
  0
LINE
  5
13B
330
1F
100
AcDbEntity
  8
0
 62
     7
370
    40
100
AcDbLine
 10
283.826699
 20
164.938573
 30
0.0
 11
283.9574305
 21
163.4442845
 31
0.0
  0
LINE
  5
13C
330
1F
100
AcDbEntity
  8
0
 62
     7
370
    40
100
AcDbLine
 10
286.815276
 20
165.200036
 30
0.0
 11
286.946007
 21
163.705753
 31
0.0
  0
LINE
  5
13D
330
1F
100
AcDbEntity
  8
0
 62
     7
370
    40
100
AcDbLine
 10
283.9574305
 20
163.4442845
 30
0.0
 11
286.946007
 21
163.705753
 31
0.0
  0
LINE
  5
13E
330
1F
100
AcDbEntity
  8
0
  6
SLD-Punktstrich
 62
     7
370
    15
100
AcDbLine
 10
143.8284345
 20
161.5763575
 30
0.0
 11
146.2023655
 21
161.5763575
 31
0.0
  0
LINE
  5
13F
330
1F
100
AcDbEntity
  8
0
 62
     7
370
    40
100
AcDbLine
 10
139.1097165
 20
142.8263575
 30
0.0
 11
140.6097165
 21
142.8263575
 31
0.0
  0
LINE
  5
140
330
1F
100
AcDbEntity
  8
0
 62
     7
370
    40
100
AcDbLine
 10
140.6097165
 20
180.3263575
 30
0.0
 11
140.6097165
 21
176.3263575
 31
0.0
  0
LINE
  5
141
330
1F
100
AcDbEntity
  8
0
 62
     7
370
    40
100
AcDbLine
 10
140.6097165
 20
176.3263575
 30
0.0
 11
139.1097165
 21
176.3263575
 31
0.0
  0
LINE
  5
142
330
1F
100
AcDbEntity
  8
0
 62
     7
370
    40
100
AcDbLine
 10
139.1097165
 20
180.3263575
 30
0.0
 11
140.6097165
 21
180.3263575
 31
0.0
  0
LINE
  5
143
330
1F
100
AcDbEntity
  8
0
 62
     7
370
    40
100
AcDbLine
 10
139.1097165
 20
176.3263575
 30
0.0
 11
139.1097165
 21
180.3263575
 31
0.0
  0
LINE
  5
144
330
1F
100
AcDbEntity
  8
0
 62
     7
370
    40
100
AcDbLine
 10
139.1097165
 20
142.8263575
 30
0.0
 11
139.1097165
 21
146.8263575
 31
0.0
  0
LINE
  5
145
330
1F
100
AcDbEntity
  8
0
  6
SLD-Punktstrich
 62
     7
370
    15
100
AcDbLine
 10
143.6547695
 20
161.5763575
 30
0.0
 11
136.9444044159
 21
161.5763575
 31
0.0
  0
LINE
  5
146
330
1F
100
AcDbEntity
  8
0
 62
     7
370
    40
100
AcDbLine
 10
140.6097165
 20
146.8263575
 30
0.0
 11
139.1097165
 21
146.8263575
 31
0.0
  0
LINE
  5
147
330
1F
100
AcDbEntity
  8
0
 62
     7
370
    40
100
AcDbLine
 10
140.6097165
 20
146.8263575
 30
0.0
 11
140.6097165
 21
142.8263575
 31
0.0
  0
LINE
  5
148
330
1F
100
AcDbEntity
  8
0
 62
     7
370
    40
100
AcDbLine
 10
175.840936
 20
159.8264225
 30
0.0
 11
180.5658583161
 21
159.8264225
 31
0.0
  0
LINE
  5
149
330
1F
100
AcDbEntity
  8
0
  6
SLD-Punktstrich
 62
     7
370
    15
100
AcDbLine
 10
204.065855
 20
149.838116
 30
0.0
 11
204.065855
 21
160.835315
 31
0.0
  0
ARC
  5
14A
330
1F
100
AcDbEntity
  8
0
 62
     7
370
    40
100
AcDbCircle
 10
180.565855
 20
157.3264225
 30
0.0
 40
2.500000000002199
100
AcDbArc
 50
0.0
 51
89.9999240006
  0
ARC
  5
14B
330
1F
100
AcDbEntity
  8
0
 62
     7
370
    40
100
AcDbCircle
 10
227.5659817137
 20
157.3265079806
 30
0.0
 40
2.761332728071182
100
AcDbArc
 50
115.1284555944
 51
174.8055044041
  0
ARC
  5
14C
330
1F
100
AcDbEntity
  8
0
 62
     7
370
    40
100
AcDbCircle
 10
232.2507895
 20
152.2260275
 30
0.0
 40
0.1000000000003462
100
AcDbArc
 50
90.0
 51
179.9998479943
  0
ARC
  5
14D
330
1F
100
AcDbEntity
  8
0
 62
     7
370
    40
100
AcDbCircle
 10
232.2507895
 20
151.239425
 30
0.0
 40
0.0999999999885404
100
AcDbArc
 50
180.0
 51
239.999872966
  0
ARC
  5
14E
330
1F
100
AcDbEntity
  8
0
 62
     7
370
    40
100
AcDbCircle
 10
250.880543
 20
152.225647
 30
0.0
 40
0.100000000000108
100
AcDbArc
 50
0.000116998
 51
90.0
  0
ARC
  5
14F
330
1F
100
AcDbEntity
  8
0
 62
     7
370
    40
100
AcDbCircle
 10
250.880545
 20
151.2390445
 30
0.0
 40
0.1000000000034544
100
AcDbArc
 50
300.0000909672
 51
359.9998129866
  0
ARC
  5
150
330
1F
100
AcDbEntity
  8
0
 62
     7
370
    40
100
AcDbCircle
 10
248.9154815
 20
149.87357
 30
0.0
 40
0.1000000000029283
100
AcDbArc
 50
120.000072973
 51
180.0
  0
INSERT
  5
151
330
1F
100
AcDbEntity
  8
0
  6
Continuous
 62
     7
100
AcDbBlockReference
  2
_X23
 10
0.0
 20
0.75
 30
0.0
 41
0.25
 42
0.25
 43
0.25
  0
INSERT
  5
152
330
1F
100
AcDbEntity
  8
0
  6
Continuous
 62
     7
100
AcDbBlockReference
  2
_X4
 10
0.0
 20
0.75
 30
0.0
 41
0.25
 42
0.25
 43
0.25
  0
INSERT
  5
153
330
1F
100
AcDbEntity
  8
0
  6
Continuous
 62
     7
100
AcDbBlockReference
  2
_X6
 10
0.0
 20
0.75
 30
0.0
 41
0.25
 42
0.25
 43
0.25
  0
INSERT
  5
154
330
1F
100
AcDbEntity
  8
0
  6
Continuous
 62
     7
100
AcDbBlockReference
  2
_X24
 10
0.0
 20
0.75
 30
0.0
 41
0.25
 42
0.25
 43
0.25
  0
INSERT
  5
155
330
1F
100
AcDbEntity
  8
0
  6
Continuous
 62
     7
100
AcDbBlockReference
  2
_X12
 10
0.0
 20
0.75
 30
0.0
 41
0.25
 42
0.25
 43
0.25
  0
INSERT
  5
156
330
1F
100
AcDbEntity
  8
0
  6
Continuous
 62
     7
100
AcDbBlockReference
  2
_X9
 10
0.0
 20
0.75
 30
0.0
 41
0.25
 42
0.25
 43
0.25
  0
INSERT
  5
157
330
1F
100
AcDbEntity
  8
0
  6
Continuous
 62
     7
100
AcDbBlockReference
  2
_X14
 10
0.0
 20
0.75
 30
0.0
 41
0.25
 42
0.25
 43
0.25
  0
ENDSEC
  0
SECTION
  2
OBJECTS
  0
DICTIONARY
  5
C
330
0
100
AcDbDictionary
281
     1
  3
ACAD_GROUP
350
D
  3
ACAD_LAYOUT
350
1A
  3
ACAD_MLINESTYLE
350
17
  3
ACAD_PLOTSETTINGS
350
19
  3
ACAD_PLOTSTYLENAME
350
E
  3
ACAD_SCALELIST
350
47
  0
DICTIONARY
  5
D
102
{ACAD_REACTORS
330
C
102
}
330
C
100
AcDbDictionary
281
     1
  0
DICTIONARY
  5
1A
102
{ACAD_REACTORS
330
C
102
}
330
C
100
AcDbDictionary
281
     1
  3
Layout1
350
1E
  3
Layout2
350
26
  3
Model
350
22
  0
DICTIONARY
  5
17
102
{ACAD_REACTORS
330
C
102
}
330
C
100
AcDbDictionary
281
     1
  3
Standard
350
18
  0
DICTIONARY
  5
19
102
{ACAD_REACTORS
330
C
102
}
330
C
100
AcDbDictionary
281
     1
  0
ACDBDICTIONARYWDFLT
  5
E
102
{ACAD_REACTORS
330
C
102
}
330
C
100
AcDbDictionary
281
     1
  3
Normal
350
F
100
AcDbDictionaryWithDefault
340
F
  0
DICTIONARY
  5
47
102
{ACAD_REACTORS
330
C
102
}
330
C
100
AcDbDictionary
281
     1
  3
A0
350
48
  3
A1
350
49
  3
A2
350
4A
  3
A3
350
4B
  3
A4
350
4C
  3
A5
350
4D
  3
A6
350
4E
  3
A7
350
4F
  3
A8
350
50
  3
A9
350
51
  3
B0
350
52
  3
B1
350
53
  3
B2
350
54
  3
B3
350
55
  3
B4
350
56
  3
B5
350
57
  3
B6
350
58
  3
B7
350
59
  3
B8
350
5A
  3
B9
350
5B
  3
C0
350
5C
  3
C1
350
5D
  3
C2
350
5E
  3
C3
350
5F
  3
C4
350
60
  3
C5
350
61
  3
C6
350
62
  3
C7
350
63
  3
C8
350
64
  3
C9
350
65
  3
D0
350
66
  3
D1
350
67
  3
D2
350
68
  0
LAYOUT
  5
1E
102
{ACAD_REACTORS
330
1A
102
}
330
1A
100
AcDbPlotSettings
  1

  2
none_device
  4

  6

 40
0.0
 41
0.0
 42
0.0
 43
0.0
 44
0.0
 45
0.0
 46
0.0
 47
0.0
 48
0.0
 49
0.0
140
0.0
141
0.0
142
1.0
143
1.0
 70
   688
 72
     1
 73
     0
 74
     5
  7

 75
    16
147
1.0
148
0.0
149
0.0
100
AcDbLayout
  1
Layout1
 70
     1
 71
     1
 10
0.0
 20
0.0
 11
420.0
 21
297.0
 12
0.0
 22
0.0
 32
0.0
 14
1.0000000000E+20
 24
1.0000000000E+20
 34
1.0000000000E+20
 15
-1.0000000000E+20
 25
-1.0000000000E+20
 35
-1.0000000000E+20
146
0.0
 13
0.0
 23
0.0
 33
0.0
 16
1.0
 26
0.0
 36
0.0
 17
0.0
 27
1.0
 37
0.0
 76
     0
330
1B
  0
LAYOUT
  5
26
102
{ACAD_REACTORS
330
1A
102
}
330
1A
100
AcDbPlotSettings
  1

  2
none_device
  4

  6

 40
0.0
 41
0.0
 42
0.0
 43
0.0
 44
0.0
 45
0.0
 46
0.0
 47
0.0
 48
0.0
 49
0.0
140
0.0
141
0.0
142
1.0
143
1.0
 70
   688
 72
     1
 73
     0
 74
     5
  7

 75
    16
147
1.0
148
0.0
149
0.0
100
AcDbLayout
  1
Layout2
 70
     1
 71
     2
 10
0.0
 20
0.0
 11
0.0
 21
0.0
 12
0.0
 22
0.0
 32
0.0
 14
0.0
 24
0.0
 34
0.0
 15
0.0
 25
0.0
 35
0.0
146
0.0
 13
0.0
 23
0.0
 33
0.0
 16
1.0
 26
0.0
 36
0.0
 17
0.0
 27
1.0
 37
0.0
 76
     0
330
23
  0
LAYOUT
  5
22
102
{ACAD_REACTORS
330
1A
102
}
330
1A
100
AcDbPlotSettings
  1

  2
none_device
  4
Letter_(8.50_x_11.00_Inches)
  6

 40
6.35
 41
6.35
 42
6.35000508
 43
6.35000508
 44
215.9
 45
279.4
 46
0.0
 47
0.0
 48
0.0
 49
0.0
140
0.0
141
0.0
142
1.0
143
1.0
 70
  1712
 72
     1
 73
     0
 74
     0
  7

 75
     0
147
1.0
148
0.0
149
0.0
100
AcDbLayout
  1
Model
 70
     1
 71
     0
 10
0.0
 20
0.0
 11
420.0
 21
297.0
 12
0.0
 22
0.0
 32
0.0
 14
0.0
 24
0.0
 34
0.0
 15
420.0
 25
297.0
 35
0.0
146
0.0
 13
0.0
 23
0.0
 33
0.0
 16
1.0
 26
0.0
 36
0.0
 17
0.0
 27
1.0
 37
0.0
 76
     0
330
1F
331
29
  0
MLINESTYLE
  5
18
102
{ACAD_REACTORS
330
17
102
}
330
17
100
AcDbMlineStyle
  2
Standard
 70
     0
  3

 62
   256
 51
90.0
 52
90.0
 71
     2
 49
0.5
 62
   256
  6
BYLAYER
 49
-0.5
 62
   256
  6
BYLAYER
  0
ACDBPLACEHOLDER
  5
F
102
{ACAD_REACTORS
330
E
102
}
330
E
  0
SCALE
  5
48
102
{ACAD_REACTORS
330
47
102
}
330
47
100
AcDbScale
 70
     0
300
1:1
140
1.0
141
1.0
290
     1
  0
SCALE
  5
49
102
{ACAD_REACTORS
330
47
102
}
330
47
100
AcDbScale
 70
     0
300
1:2
140
1.0
141
2.0
290
     0
  0
SCALE
  5
4A
102
{ACAD_REACTORS
330
47
102
}
330
47
100
AcDbScale
 70
     0
300
1:4
140
1.0
141
4.0
290
     0
  0
SCALE
  5
4B
102
{ACAD_REACTORS
330
47
102
}
330
47
100
AcDbScale
 70
     0
300
1:5
140
1.0
141
5.0
290
     0
  0
SCALE
  5
4C
102
{ACAD_REACTORS
330
47
102
}
330
47
100
AcDbScale
 70
     0
300
1:8
140
1.0
141
8.0
290
     0
  0
SCALE
  5
4D
102
{ACAD_REACTORS
330
47
102
}
330
47
100
AcDbScale
 70
     0
300
1:10
140
1.0
141
10.0
290
     0
  0
SCALE
  5
4E
102
{ACAD_REACTORS
330
47
102
}
330
47
100
AcDbScale
 70
     0
300
1:16
140
1.0
141
16.0
290
     0
  0
SCALE
  5
4F
102
{ACAD_REACTORS
330
47
102
}
330
47
100
AcDbScale
 70
     0
300
1:20
140
1.0
141
20.0
290
     0
  0
SCALE
  5
50
102
{ACAD_REACTORS
330
47
102
}
330
47
100
AcDbScale
 70
     0
300
1:30
140
1.0
141
30.0
290
     0
  0
SCALE
  5
51
102
{ACAD_REACTORS
330
47
102
}
330
47
100
AcDbScale
 70
     0
300
1:40
140
1.0
141
40.0
290
     0
  0
SCALE
  5
52
102
{ACAD_REACTORS
330
47
102
}
330
47
100
AcDbScale
 70
     0
300
1:50
140
1.0
141
50.0
290
     0
  0
SCALE
  5
53
102
{ACAD_REACTORS
330
47
102
}
330
47
100
AcDbScale
 70
     0
300
1:100
140
1.0
141
100.0
290
     0
  0
SCALE
  5
54
102
{ACAD_REACTORS
330
47
102
}
330
47
100
AcDbScale
 70
     0
300
2:1
140
2.0
141
1.0
290
     0
  0
SCALE
  5
55
102
{ACAD_REACTORS
330
47
102
}
330
47
100
AcDbScale
 70
     0
300
4:1
140
4.0
141
1.0
290
     0
  0
SCALE
  5
56
102
{ACAD_REACTORS
330
47
102
}
330
47
100
AcDbScale
 70
     0
300
8:1
140
8.0
141
1.0
290
     0
  0
SCALE
  5
57
102
{ACAD_REACTORS
330
47
102
}
330
47
100
AcDbScale
 70
     0
300
10:1
140
10.0
141
1.0
290
     0
  0
SCALE
  5
58
102
{ACAD_REACTORS
330
47
102
}
330
47
100
AcDbScale
 70
     0
300
100:1
140
100.0
141
1.0
290
     0
  0
SCALE
  5
59
102
{ACAD_REACTORS
330
47
102
}
330
47
100
AcDbScale
 70
     0
300
1/128" = 1'-0"
140
0.0078125
141
12.0
290
     0
  0
SCALE
  5
5A
102
{ACAD_REACTORS
330
47
102
}
330
47
100
AcDbScale
 70
     0
300
1/64" = 1'-0"
140
0.015625
141
12.0
290
     0
  0
SCALE
  5
5B
102
{ACAD_REACTORS
330
47
102
}
330
47
100
AcDbScale
 70
     0
300
1/32" = 1'-0"
140
0.03125
141
12.0
290
     0
  0
SCALE
  5
5C
102
{ACAD_REACTORS
330
47
102
}
330
47
100
AcDbScale
 70
     0
300
1/16" = 1'-0"
140
0.0625
141
12.0
290
     0
  0
SCALE
  5
5D
102
{ACAD_REACTORS
330
47
102
}
330
47
100
AcDbScale
 70
     0
300
3/32" = 1'-0"
140
0.09375
141
12.0
290
     0
  0
SCALE
  5
5E
102
{ACAD_REACTORS
330
47
102
}
330
47
100
AcDbScale
 70
     0
300
1/8" = 1'-0"
140
0.125
141
12.0
290
     0
  0
SCALE
  5
5F
102
{ACAD_REACTORS
330
47
102
}
330
47
100
AcDbScale
 70
     0
300
3/16" = 1'-0"
140
0.1875
141
12.0
290
     0
  0
SCALE
  5
60
102
{ACAD_REACTORS
330
47
102
}
330
47
100
AcDbScale
 70
     0
300
1/4" = 1'-0"
140
0.25
141
12.0
290
     0
  0
SCALE
  5
61
102
{ACAD_REACTORS
330
47
102
}
330
47
100
AcDbScale
 70
     0
300
3/8" = 1'-0"
140
0.375
141
12.0
290
     0
  0
SCALE
  5
62
102
{ACAD_REACTORS
330
47
102
}
330
47
100
AcDbScale
 70
     0
300
1/2" = 1'-0"
140
0.5
141
12.0
290
     0
  0
SCALE
  5
63
102
{ACAD_REACTORS
330
47
102
}
330
47
100
AcDbScale
 70
     0
300
3/4" = 1'-0"
140
0.75
141
12.0
290
     0
  0
SCALE
  5
64
102
{ACAD_REACTORS
330
47
102
}
330
47
100
AcDbScale
 70
     0
300
1" = 1'-0"
140
1.0
141
12.0
290
     0
  0
SCALE
  5
65
102
{ACAD_REACTORS
330
47
102
}
330
47
100
AcDbScale
 70
     0
300
1-1/2" = 1'-0"
140
1.5
141
12.0
290
     0
  0
SCALE
  5
66
102
{ACAD_REACTORS
330
47
102
}
330
47
100
AcDbScale
 70
     0
300
3" = 1'-0"
140
3.0
141
12.0
290
     0
  0
SCALE
  5
67
102
{ACAD_REACTORS
330
47
102
}
330
47
100
AcDbScale
 70
     0
300
6" = 1'-0"
140
6.0
141
12.0
290
     0
  0
SCALE
  5
68
102
{ACAD_REACTORS
330
47
102
}
330
47
100
AcDbScale
 70
     0
300
1'-0" = 1'-0"
140
12.0
141
12.0
290
     0
  0
ENDSEC
  0
EOF
