  0
SECTION
  2
HEADER
  9
$ACADVER
  1
AC1015
  9
$ACADMAINTVER
 70
     6
  9
$DWGCODEPAGE
  3
DOS850
  9
$INSBASE
 10
0.0
 20
0.0
 30
0.0
  9
$EXTMIN
 10
-58.0287
 20
-9.5031
 30
1.000000E+20
  9
$EXTMAX
 10
7.4736
 20
54.9722
 30
-1.000000E+20
  9
$LIMMIN
 10
0.0
 20
0.0
  9
$LIMMAX
 10
0.0
 20
0.0
  9
$ORTHOMODE
 70
     0
  9
$REGENMODE
 70
     1
  9
$FILLMODE
 70
     1
  9
$QTEXTMODE
 70
     0
  9
$MIRRTEXT
 70
     1
  9
$LTSCALE
 40
1.0
  9
$ATTMODE
 70
     1
  9
$TEXTSIZE
 40
0.2
  9
$TRACEWID
 40
0.05
  9
$TEXTSTYLE
  7
Standard
  9
$CLAYER
  8
0
  9
$CELTYPE
  6
Continuous
  9
$CECOLOR
 62
   256
  9
$CELTSCALE
 40
1.0
  9
$DISPSILH
 70
     0
  9
$DIMSCALE
 40
1.0
  9
$DIMASZ
 40
0.18
  9
$DIMEXO
 40
0.0625
  9
$DIMDLI
 40
0.38
  9
$DIMRND
 40
0.0
  9
$DIMDLE
 40
0.0
  9
$DIMEXE
 40
0.18
  9
$DIMTP
 40
0.0
  9
$DIMTM
 40
0.0
  9
$DIMTXT
 40
0.18
  9
$DIMCEN
 40
0.09
  9
$DIMTSZ
 40
0.0
  9
$DIMTOL
 70
     0
  9
$DIMLIM
 70
     0
  9
$DIMTIH
 70
     1
  9
$DIMTOH
 70
     1
  9
$DIMSE1
 70
     0
  9
$DIMSE2
 70
     0
  9
$DIMTAD
 70
     0
  9
$DIMZIN
 70
     0
  9
$DIMBLK
  1

  9
$DIMASO
 70
     1
  9
$DIMSHO
 70
     1
  9
$DIMPOST
  1

  9
$DIMAPOST
  1

  9
$DIMALT
 70
     0
  9
$DIMALTD
 70
     2
  9
$DIMALTF
 40
25.4
  9
$DIMLFAC
 40
1.0
  9
$DIMTOFL
 70
     0
  9
$DIMTVP
 40
0.0
  9
$DIMTIX
 70
     0
  9
$DIMSOXD
 70
     0
  9
$DIMSAH
 70
     0
  9
$DIMBLK1
  1

  9
$DIMBLK2
  1

  9
$DIMSTYLE
  2
Standard
  9
$DIMCLRD
 70
     0
  9
$DIMCLRE
 70
     0
  9
$DIMCLRT
 70
     0
  9
$DIMTFAC
 40
1.0
  9
$DIMGAP
 40
0.09
  9
$DIMJUST
 70
     0
  9
$DIMSD1
 70
     0
  9
$DIMSD2
 70
     0
  9
$DIMTOLJ
 70
     1
  9
$DIMTZIN
 70
     0
  9
$DIMALTZ
 70
     0
  9
$DIMALTTZ
 70
     0
  9
$DIMUPT
 70
     0
  9
$DIMDEC
 70
     4
  9
$DIMTDEC
 70
     4
  9
$DIMALTU
 70
     2
  9
$DIMALTTD
 70
     2
  9
$DIMTXSTY
  7
Standard
  9
$DIMAUNIT
 70
     0
  9
$DIMADEC
 70
     0
  9
$DIMALTRND
 40
0.0
  9
$DIMAZIN
 70
     0
  9
$DIMDSEP
 70
     0
  9
$DIMATFIT
 70
     3
  9
$DIMFRAC
 70
     0
  9
$DIMLDRBLK
  1

  9
$DIMLUNIT
 70
     2
  9
$DIMLWD
 70
     0
  9
$DIMLWE
 70
     0
  9
$DIMTMOVE
 70
     0
  9
$LUNITS
 70
     2
  9
$LUPREC
 70
     4
  9
$SKETCHINC
 40
0.1
  9
$FILLETRAD
 40
0.0
  9
$AUNITS
 70
     0
  9
$AUPREC
 70
     0
  9
$MENU
  1
acad
  9
$ELEVATION
 40
0.0
  9
$PELEVATION
 40
0.0
  9
$THICKNESS
 40
0.0
  9
$LIMCHECK
 70
     0
  9
$CHAMFERA
 40
0.0
  9
$CHAMFERB
 40
0.0
  9
$CHAMFERC
 40
0.0
  9
$CHAMFERD
 40
0.0
  9
$SKPOLY
 70
     0
  9
$TDCREATE
 40
0.000000000
  9
$TDUCREATE
 40
0.000000000
  9
$TDUPDATE
 40
0.000000000
  9
$TDUUPDATE
 40
0.000000000
  9
$TDINDWG
 40
0.0000000000
  9
$TDUSRTIMER
 40
0.0000000000
  9
$USRTIMER
 70
     1
  9
$ANGBASE
 50
0.0
  9
$ANGDIR
 70
     0
  9
$PDMODE
 70
     0
  9
$PDSIZE
 40
0.0
  9
$PLINEWID
 40
0.0
  9
$SPLFRAME
 70
     0
  9
$SPLINETYPE
 70
     6
  9
$SPLINESEGS
 70
     8
  9
$HANDSEED
  5
A8
  9
$SURFTAB1
 70
     6
  9
$SURFTAB2
 70
     6
  9
$SURFTYPE
 70
     6
  9
$SURFU
 70
     6
  9
$SURFV
 70
     6
  9
$UCSBASE
  2

  9
$UCSNAME
  2

  9
$UCSORG
 10
0.0
 20
0.0
 30
0.0
  9
$UCSXDIR
 10
1.0
 20
0.0
 30
0.0
  9
$UCSYDIR
 10
0.0
 20
1.0
 30
0.0
  9
$UCSORTHOREF
  2

  9
$UCSORTHOVIEW
 70
     0
  9
$UCSORGTOP
 10
0.0
 20
0.0
 30
0.0
  9
$UCSORGBOTTOM
 10
0.0
 20
0.0
 30
0.0
  9
$UCSORGLEFT
 10
0.0
 20
0.0
 30
0.0
  9
$UCSORGRIGHT
 10
0.0
 20
0.0
 30
0.0
  9
$UCSORGFRONT
 10
0.0
 20
0.0
 30
0.0
  9
$UCSORGBACK
 10
0.0
 20
0.0
 30
0.0
  9
$PUCSBASE
  2

  9
$PUCSNAME
  2

  9
$PUCSORG
 10
0.0
 20
0.0
 30
0.0
  9
$PUCSXDIR
 10
1.0
 20
0.0
 30
0.0
  9
$PUCSYDIR
 10
0.0
 20
1.0
 30
0.0
  9
$PUCSORTHOREF
  2

  9
$PUCSORTHOVIEW
 70
     0
  9
$PUCSORGTOP
 10
0.0
 20
0.0
 30
0.0
  9
$PUCSORGBOTTOM
 10
0.0
 20
0.0
 30
0.0
  9
$PUCSORGLEFT
 10
0.0
 20
0.0
 30
0.0
  9
$PUCSORGRIGHT
 10
0.0
 20
0.0
 30
0.0
  9
$PUCSORGFRONT
 10
0.0
 20
0.0
 30
0.0
  9
$PUCSORGBACK
 10
0.0
 20
0.0
 30
0.0
  9
$USERI1
 70
     0
  9
$USERI2
 70
     0
  9
$USERI3
 70
     0
  9
$USERI4
 70
     0
  9
$USERI5
 70
     0
  9
$USERR1
 40
0.0
  9
$USERR2
 40
0.0
  9
$USERR3
 40
0.0
  9
$USERR4
 40
0.0
  9
$USERR5
 40
0.0
  9
$WORLDVIEW
 70
     1
  9
$SHADEDGE
 70
     3
  9
$SHADEDIF
 70
    70
  9
$TILEMODE
 70
     1
  9
$MAXACTVP
 70
    16
  9
$PINSBASE
 10
0.0
 20
0.0
 30
0.0
  9
$PLIMCHECK
 70
     0
  9
$PEXTMIN
 10
1.000000E+20
 20
1.000000E+20
 30
1.000000E+20
  9
$PEXTMAX
 10
-1.000000E+20
 20
-1.000000E+20
 30
-1.000000E+20
  9
$PLIMMIN
 10
0.0
 20
0.0
  9
$PLIMMAX
 10
12.0
 20
9.0
  9
$UNITMODE
 70
     0
  9
$VISRETAIN
 70
     0
  9
$PLINEGEN
 70
     1
  9
$PSLTSCALE
 70
     0
  9
$TREEDEPTH
 70
  3020
  9
$CMLSTYLE
  2
Standard
  9
$CMLJUST
 70
     0
  9
$CMLSCALE
 40
1.0
  9
$PROXYGRAPHICS
 70
     0
  9
$MEASUREMENT
 70
     0
  9
$CELWEIGHT
370
     0
  9
$ENDCAPS
280
     0
  9
$JOINSTYLE
280
     0
  9
$LWDISPLAY
290
     0
  9
$INSUNITS
 70
     4
  9
$HYPERLINKBASE
  1

  9
$XEDIT
290
     1
  9
$CEPSNTYPE
380
     0
  9
$PSTYLEMODE
290
     1
  9
$FINGERPRINTGUID
  2

  9
$VERSIONGUID
  2

  9
$EXTNAMES
290
     1
  9
$PSVPSCALE
 40
0.0
  0
ENDSEC
  0
SECTION
  2
CLASSES
  0
CLASS
  1
LWPOLYLINE
  2
AcDbPolyline
  3
AutoCAD 2000
 90
    32768
280
     0
281
     1
  0
CLASS
  1
IMAGE
  2
AcDbRasterImage
  3
ISM
 90
    32895
280
     0
281
     1
  0
CLASS
  1
OLE2FRAME
  2
AcDbOle2Frame
  3
AutoCAD 2000
 90
    32768
280
     0
281
     1
  0
CLASS
  1
HATCH
  2
AcDbHatch
  3
AutoCAD 2000
 90
    32768
280
     0
281
     1
  0
CLASS
  1
DICTIONARYVAR
  2
AcDbDictionaryVar
  3
AutoCAD 2000
 90
    32768
280
     0
281
     0
  0
CLASS
  1
RASTERVARIABLES
  2
AcDbRasterVariables
  3
ISM
 90
    32768
280
     0
281
     0
  0
CLASS
  1
IMAGEDEF
  2
AcDbRasterImageDef
  3
ISM
 90
    32768
280
     0
281
     0
  0
CLASS
  1
IMAGEDEF_REACTOR
  2
AcDbRasterImageDefReactor
  3
ISM
 90
    32769
280
     0
281
     0
  0
CLASS
  1
IDBUFFER
  2
AcDbIdBuffer
  3
AutoCAD 2000
 90
    32768
280
     0
281
     0
  0
CLASS
  1
SPATIAL_FILTER
  2
AcDbSpatialFilter
  3
AutoCAD 2000
 90
    32768
280
     0
281
     0
  0
CLASS
  1
XRECORD
  2
AcDbXrecord
  3
AutoCAD 2000
 90
    32768
280
     0
281
     0
  0
CLASS
  1
SORTENTSTABLE
  2
AcDbSortentsTable
  3
AutoCAD 2000
 90
    32768
280
     0
281
     0
  0
CLASS
  1
LAYER_INDEX
  2
AcDbLayerIndex
  3
AutoCAD 2000
 90
    32768
280
     0
281
     0
  0
CLASS
  1
SPATIAL_INDEX
  2
AcDbSpatialIndex
  3
AutoCAD 2000
 90
    32768
280
     0
281
     0
  0
CLASS
  1
OBJECT_PTR
  2
CAseDLPNTableRecord
  3
"ASE-LPNTableRecord"
 90
    32769
280
     0
281
     0
  0
CLASS
  1
LAYOUT
  2
AcDbLayout
  3
AutoCAD 2000
 90
        0
280
     0
281
     0
  0
CLASS
  1
PLOTSETTINGS
  2
AcDbPlotSettings
  3
AutoCAD 2000
 90
    32768
280
     0
281
     0
  0
CLASS
  1
ACDBDICTIONARYWDFLT
  2
AcDbDictionaryWithDefault
  3
AutoCAD 2000
 90
        0
280
     0
281
     0
  0
CLASS
  1
ACDBPLACEHOLDER
  2
AcDbPlaceHolder
  3
AutoCAD 2000
 90
        0
280
     0
281
     0
  0
CLASS
  1
VBA_PROJECT
  2
AcDbVbaProject
  3
acadvba
 90
    32768
280
     0
281
     0
  0
CLASS
  1
WIPEOUT
  2
AcDbWipeout
  3
WipeOut|AutoCAD Express Tool|expresstools@autodesk.com
 90
    32895
280
     0
281
     1
  0
CLASS
  1
WIPEOUTVARIABLES
  2
AcDbWipeoutVariables
  3
WipeOut|AutoCAD Express Tool|expresstools@autodesk.com
 90
        0
280
     0
281
     0
  0
CLASS
  1
RTEXT
  2
RText
  3
RText|AutoCAD Express Tool|expresstools@autodesk.com
 90
    32768
280
     0
281
     1
  0
CLASS
  1
ARCALIGNEDTEXT
  2
AcDbArcAlignedText
  3
ATEXT|AutoCAD Express Tool|expresstools@autodesk.com
 90
    32768
280
     0
281
     1
  0
ENDSEC
  0
SECTION
  2
TABLES
  0
TABLE
  2
VPORT
  5
7
100
AcDbSymbolTable
 70
     1
  0
VPORT
  5
15
100
AcDbSymbolTableRecord
100
AcDbViewportTableRecord
  2
*ACTIVE
 70
     0
 10
0.0
 20
0.0
 11
1.0
 21
1.0
 12
6.591288
 22
4.579184
 13
0.0
 23
0.0
 14
1.0
 24
1.0
 15
0.0
 25
0.0
 16
0.0
 26
0.0
 36
1.0
 17
0.0
 27
0.0
 37
0.0
 40
9.158369
 41
0.688564
 42
50.0
 43
0.0
 44
0.0
 50
0.0
 51
0.0
 71
     0
 72
   100
 73
     1
 74
     1
 75
     0
 76
     0
 77
     0
 78
     0
281
     0
 65
     0
110
0.0
120
0.0
130
0.0
111
1.0
121
0.0
131
0.0
112
0.0
122
1.0
132
0.0
345
0
346
0
 79
     0
146
0.0
  0
ENDTAB
  0
TABLE
  2
LTYPE
  5
4
100
AcDbSymbolTable
 70
     4
  0
LTYPE
  5
11
100
AcDbSymbolTableRecord
100
AcDbLinetypeTableRecord
  2
ByBlock
 70
    64
  3

 72
    65
 73
     0
 40
0.0
  0
LTYPE
  5
12
100
AcDbSymbolTableRecord
100
AcDbLinetypeTableRecord
  2
ByLayer
 70
    64
  3

 72
    65
 73
     0
 40
0.0
  0
LTYPE
  5
13
100
AcDbSymbolTableRecord
100
AcDbLinetypeTableRecord
  2
Continuous
 70
    64
  3
Solid line
 72
    65
 73
     0
 40
0.0
  0
LTYPE
  5
41
100
AcDbSymbolTableRecord
100
AcDbLinetypeTableRecord
  2
New Line1
 70
    65
  3

 72
    64
 73
     6
 40
5.2
 49
1.9
 74
     0
 49
-0.5
 74
     0
 49
0.3
 74
     0
 49
-0.5
 74
     0
 49
1.9
 74
     0
 49
-0.1
 74
     0
  0
ENDTAB
  0
TABLE
  2
LAYER
  5
2
100
AcDbSymbolTable
 70
     2
  0
LAYER
  5
14
100
AcDbSymbolTableRecord
100
AcDbLayerTableRecord
  2
0
 70
     0
 62
     7
  6
Continuous
290
     1
370
    -3
390
1D
  0
LAYER
  5
24
100
AcDbSymbolTableRecord
100
AcDbLayerTableRecord
  2
LC-004-006-MLN-0
 70
     0
 62
     7
  6
Continuous
290
     1
370
    -3
390
1F
  0
ENDTAB
  0
TABLE
  2
STYLE
  5
3
100
AcDbSymbolTable
 70
     1
  0
STYLE
  5
17
100
AcDbSymbolTableRecord
100
AcDbTextStyleTableRecord
  2
Standard
 70
     0
 40
0.0
 41
1.0
 50
0.0
 71
     0
 42
0.0
  3
txt
  4

  0
ENDTAB
  0
TABLE
  2
VIEW
  5
5
100
AcDbSymbolTable
 70
     0
  0
ENDTAB
  0
TABLE
  2
UCS
  5
6
100
AcDbSymbolTable
 70
     0
  0
ENDTAB
  0
TABLE
  2
APPID
  5
8
100
AcDbSymbolTable
 70
     1
  0
APPID
  5
16
100
AcDbSymbolTableRecord
100
AcDbRegAppTableRecord
  2
ACAD
 70
     0
  0
ENDTAB
  0
TABLE
  2
DIMSTYLE
  5
9
100
AcDbSymbolTable
 70
     1
100
AcDbDimStyleTable
 71
     0
  0
DIMSTYLE
105
18
100
AcDbSymbolTableRecord
100
AcDbDimStyleTableRecord
  2
Standard
 70
     0
  3

  4

 40
1.0
 41
0.18
 42
0.0625
 43
0.38
 44
0.18
 45
0.0
 46
0.0
 47
0.0
 48
0.0
 71
     0
 72
     0
 73
     1
 74
     1
 75
     0
 76
     0
 77
     0
 78
     0
 79
     0
140
0.18
141
0.09
142
0.0
143
25.4
144
1.0
145
0.0
146
1.0
147
0.09
148
0.0
170
     0
171
     2
172
     0
173
     0
174
     0
175
     0
176
     0
177
     0
178
     0
179
     0
271
     4
272
     4
273
     2
274
     2
275
     0
276
     0
277
     2
278
    46
279
     0
280
     0
281
     0
282
     0
283
     1
284
     0
285
     0
286
     0
288
     0
340
17
341
0
342
0
343
0
344
0
371
    -2
372
    -2
  0
ENDTAB
  0
TABLE
  2
BLOCK_RECORD
  5
1
100
AcDbSymbolTable
 70
     0
  0
BLOCK_RECORD
  5
A
100
AcDbSymbolTableRecord
100
AcDbBlockTableRecord
  2
*MODEL_SPACE
340
20
  0
BLOCK_RECORD
  5
B
100
AcDbSymbolTableRecord
100
AcDbBlockTableRecord
  2
*PAPER_SPACE
340
21
  0
ENDTAB
  0
ENDSEC
  0
SECTION
  2
BLOCKS
  0
BLOCK
  5
D
100
AcDbEntity
  8
0
100
AcDbBlockBegin
  2
*MODEL_SPACE
 70
     0
 10
0.0
 20
0.0
 30
0.0
  3
*MODEL_SPACE
  1

  0
ENDBLK
  5
E
100
AcDbEntity
  8
0
100
AcDbBlockEnd
  0
BLOCK
  5
F
100
AcDbEntity
 67
     1
  8
0
100
AcDbBlockBegin
  2
*PAPER_SPACE
 70
     0
 10
0.0
 20
0.0
 30
0.0
  3
*PAPER_SPACE
  1

  0
ENDBLK
  5
10
100
AcDbEntity
 67
     1
  8
0
100
AcDbBlockEnd
  0
ENDSEC
  0
SECTION
  2
ENTITIES
  0
SPLINE
  5
25
100
AcDbEntity
  8
LC-004-006-MLN-0
370
    20
 62
     0
100
AcDbSpline
210
0.0
220
0.0
230
1.0
 70
     0
 71
     3
 72
     8
 73
     4
 74
     0
 42
0.0000000001
 43
0.0000000001
 40
0.0
 40
0.0
 40
0.0
 40
0.0
 40
1.0
 40
1.0
 40
1.0
 40
1.0
 10
-48.434699999999999
 20
49.294000000000004
 30
0.0
 10
-48.434699999999999
 20
49.294000000000004
 30
0.0
 10
-48.434699999999999
 20
-9.4063999999999997
 30
0.0
 10
-48.434699999999999
 20
-9.4063999999999997
 30
0.0
  0
SPLINE
  5
26
100
AcDbEntity
  8
LC-004-006-MLN-0
370
    20
 62
     0
100
AcDbSpline
210
0.0
220
0.0
230
1.0
 70
     0
 71
     3
 72
     8
 73
     4
 74
     0
 42
0.0000000001
 43
0.0000000001
 40
0.0
 40
0.0
 40
0.0
 40
0.0
 40
1.0
 40
1.0
 40
1.0
 40
1.0
 10
-48.434699999999999
 20
42.612300000000005
 30
0.0
 10
-48.434699999999999
 20
42.612300000000005
 30
0.0
 10
-48.1203
 20
44.970500000000001
 30
0.0
 10
-48.1203
 20
44.970500000000001
 30
0.0
  0
SPLINE
  5
27
100
AcDbEntity
  8
LC-004-006-MLN-0
370
    20
 62
     0
100
AcDbSpline
210
0.0
220
0.0
230
1.0
 70
     0
 71
     3
 72
     8
 73
     4
 74
     0
 42
0.0000000001
 43
0.0000000001
 40
0.0
 40
0.0
 40
0.0
 40
0.0
 40
1.0
 40
1.0
 40
1.0
 40
1.0
 10
-48.709900000000005
 20
44.970500000000001
 30
0.0
 10
-48.709900000000005
 20
44.970500000000001
 30
0.0
 10
-48.434699999999999
 20
42.612300000000005
 30
0.0
 10
-48.434699999999999
 20
42.612300000000005
 30
0.0
  0
SPLINE
  5
28
100
AcDbEntity
  8
LC-004-006-MLN-0
370
    20
 62
     0
100
AcDbSpline
210
0.0
220
0.0
230
1.0
 70
     0
 71
     3
 72
     8
 73
     4
 74
     0
 42
0.0000000001
 43
0.0000000001
 40
0.0
 40
0.0
 40
0.0
 40
0.0
 40
1.0
 40
1.0
 40
1.0
 40
1.0
 10
-48.434699999999999
 20
39.782400000000003
 30
0.0
 10
-48.434699999999999
 20
39.782400000000003
 30
0.0
 10
-47.7273
 20
44.970500000000001
 30
0.0
 10
-47.7273
 20
44.970500000000001
 30
0.0
  0
SPLINE
  5
29
100
AcDbEntity
  8
LC-004-006-MLN-0
370
    20
 62
     0
100
AcDbSpline
210
0.0
220
0.0
230
1.0
 70
     0
 71
     3
 72
     8
 73
     4
 74
     0
 42
0.0000000001
 43
0.0000000001
 40
0.0
 40
0.0
 40
0.0
 40
0.0
 40
1.0
 40
1.0
 40
1.0
 40
1.0
 10
-49.102900000000005
 20
44.970500000000001
 30
0.0
 10
-49.102900000000005
 20
44.970500000000001
 30
0.0
 10
-48.434699999999999
 20
39.782400000000003
 30
0.0
 10
-48.434699999999999
 20
39.782400000000003
 30
0.0
  0
SPLINE
  5
2A
100
AcDbEntity
  8
LC-004-006-MLN-0
370
    20
 62
     0
100
AcDbSpline
210
0.0
220
0.0
230
1.0
 70
     0
 71
     3
 72
     8
 73
     4
 74
     0
 42
0.0000000001
 43
0.0000000001
 40
0.0
 40
0.0
 40
0.0
 40
0.0
 40
1.0
 40
1.0
 40
1.0
 40
1.0
 10
-48.434699999999999
 20
36.972200000000001
 30
0.0
 10
-48.434699999999999
 20
36.972200000000001
 30
0.0
 10
-47.3932
 20
44.8919
 30
0.0
 10
-47.3932
 20
44.8919
 30
0.0
  0
SPLINE
  5
2B
100
AcDbEntity
  8
LC-004-006-MLN-0
370
    20
 62
     0
100
AcDbSpline
210
0.0
220
0.0
230
1.0
 70
     0
 71
     3
 72
     8
 73
     4
 74
     0
 42
0.0000000001
 43
0.0000000001
 40
0.0
 40
0.0
 40
0.0
 40
0.0
 40
1.0
 40
1.0
 40
1.0
 40
1.0
 10
-49.496000000000002
 20
44.8919
 30
0.0
 10
-49.496000000000002
 20
44.8919
 30
0.0
 10
-48.434699999999999
 20
36.972200000000001
 30
0.0
 10
-48.434699999999999
 20
36.972200000000001
 30
0.0
  0
SPLINE
  5
2C
100
AcDbEntity
  8
LC-004-006-MLN-0
370
    20
 62
     0
100
AcDbSpline
210
0.0
220
0.0
230
1.0
 70
     0
 71
     3
 72
     8
 73
     4
 74
     0
 42
0.0000000001
 43
0.0000000001
 40
0.0
 40
0.0
 40
0.0
 40
0.0
 40
1.0
 40
1.0
 40
1.0
 40
1.0
 10
-49.810400000000001
 20
44.8919
 30
0.0
 10
-49.810400000000001
 20
44.8919
 30
0.0
 10
-47.000100000000003
 20
44.8919
 30
0.0
 10
-47.000100000000003
 20
44.8919
 30
0.0
  0
SPLINE
  5
2D
100
AcDbEntity
  8
LC-004-006-MLN-0
370
    20
 62
     0
100
AcDbSpline
210
0.0
220
0.0
230
1.0
 70
     0
 71
     3
 72
     8
 73
     4
 74
     0
 42
0.0000000001
 43
0.0000000001
 40
0.0
 40
0.0
 40
0.0
 40
0.0
 40
1.0
 40
1.0
 40
1.0
 40
1.0
 10
-48.434699999999999
 20
34.161999999999999
 30
0.0
 10
-48.434699999999999
 20
34.161999999999999
 30
0.0
 10
-47.000100000000003
 20
44.8919
 30
0.0
 10
-47.000100000000003
 20
44.8919
 30
0.0
  0
SPLINE
  5
2E
100
AcDbEntity
  8
LC-004-006-MLN-0
370
    20
 62
     0
100
AcDbSpline
210
0.0
220
0.0
230
1.0
 70
     0
 71
     3
 72
     8
 73
     4
 74
     0
 42
0.0000000001
 43
0.0000000001
 40
0.0
 40
0.0
 40
0.0
 40
0.0
 40
1.0
 40
1.0
 40
1.0
 40
1.0
 10
-49.810400000000001
 20
44.8919
 30
0.0
 10
-49.810400000000001
 20
44.8919
 30
0.0
 10
-48.434699999999999
 20
34.161999999999999
 30
0.0
 10
-48.434699999999999
 20
34.161999999999999
 30
0.0
  0
SPLINE
  5
2F
100
AcDbEntity
  8
LC-004-006-MLN-0
370
    20
 62
     0
100
AcDbSpline
210
0.0
220
0.0
230
1.0
 70
     0
 71
     3
 72
     8
 73
     4
 74
     0
 42
0.0000000001
 43
0.0000000001
 40
0.0
 40
0.0
 40
0.0
 40
0.0
 40
1.0
 40
1.0
 40
1.0
 40
1.0
 10
-48.709900000000005
 20
10.579600000000001
 30
0.0
 10
-48.709900000000005
 20
10.579600000000001
 30
0.0
 10
-48.434699999999999
 20
12.937800000000001
 30
0.0
 10
-48.434699999999999
 20
12.937800000000001
 30
0.0
  0
SPLINE
  5
30
100
AcDbEntity
  8
LC-004-006-MLN-0
370
    20
 62
     0
100
AcDbSpline
210
0.0
220
0.0
230
1.0
 70
     0
 71
     3
 72
     8
 73
     4
 74
     0
 42
0.0000000001
 43
0.0000000001
 40
0.0
 40
0.0
 40
0.0
 40
0.0
 40
1.0
 40
1.0
 40
1.0
 40
1.0
 10
-48.434699999999999
 20
12.937800000000001
 30
0.0
 10
-48.434699999999999
 20
12.937800000000001
 30
0.0
 10
-48.1203
 20
10.579600000000001
 30
0.0
 10
-48.1203
 20
10.579600000000001
 30
0.0
  0
SPLINE
  5
31
100
AcDbEntity
  8
LC-004-006-MLN-0
370
    20
 62
     0
100
AcDbSpline
210
0.0
220
0.0
230
1.0
 70
     0
 71
     3
 72
     8
 73
     4
 74
     0
 42
0.0000000001
 43
0.0000000001
 40
0.0
 40
0.0
 40
0.0
 40
0.0
 40
1.0
 40
1.0
 40
1.0
 40
1.0
 10
-49.102900000000005
 20
10.579600000000001
 30
0.0
 10
-49.102900000000005
 20
10.579600000000001
 30
0.0
 10
-48.434699999999999
 20
15.748100000000001
 30
0.0
 10
-48.434699999999999
 20
15.748100000000001
 30
0.0
  0
SPLINE
  5
32
100
AcDbEntity
  8
LC-004-006-MLN-0
370
    20
 62
     0
100
AcDbSpline
210
0.0
220
0.0
230
1.0
 70
     0
 71
     3
 72
     8
 73
     4
 74
     0
 42
0.0000000001
 43
0.0000000001
 40
0.0
 40
0.0
 40
0.0
 40
0.0
 40
1.0
 40
1.0
 40
1.0
 40
1.0
 10
-48.434699999999999
 20
15.748100000000001
 30
0.0
 10
-48.434699999999999
 20
15.748100000000001
 30
0.0
 10
-47.7273
 20
10.579600000000001
 30
0.0
 10
-47.7273
 20
10.579600000000001
 30
0.0
  0
SPLINE
  5
33
100
AcDbEntity
  8
LC-004-006-MLN-0
370
    20
 62
     0
100
AcDbSpline
210
0.0
220
0.0
230
1.0
 70
     0
 71
     3
 72
     8
 73
     4
 74
     0
 42
0.0000000001
 43
0.0000000001
 40
0.0
 40
0.0
 40
0.0
 40
0.0
 40
1.0
 40
1.0
 40
1.0
 40
1.0
 10
-49.496000000000002
 20
10.6386
 30
0.0
 10
-49.496000000000002
 20
10.6386
 30
0.0
 10
-48.434699999999999
 20
18.558299999999999
 30
0.0
 10
-48.434699999999999
 20
18.558299999999999
 30
0.0
  0
SPLINE
  5
34
100
AcDbEntity
  8
LC-004-006-MLN-0
370
    20
 62
     0
100
AcDbSpline
210
0.0
220
0.0
230
1.0
 70
     0
 71
     3
 72
     8
 73
     4
 74
     0
 42
0.0000000001
 43
0.0000000001
 40
0.0
 40
0.0
 40
0.0
 40
0.0
 40
1.0
 40
1.0
 40
1.0
 40
1.0
 10
-48.434699999999999
 20
18.558299999999999
 30
0.0
 10
-48.434699999999999
 20
18.558299999999999
 30
0.0
 10
-47.3932
 20
10.6386
 30
0.0
 10
-47.3932
 20
10.6386
 30
0.0
  0
SPLINE
  5
35
100
AcDbEntity
  8
LC-004-006-MLN-0
370
    20
 62
     0
100
AcDbSpline
210
0.0
220
0.0
230
1.0
 70
     0
 71
     3
 72
     8
 73
     4
 74
     0
 42
0.0000000001
 43
0.0000000001
 40
0.0
 40
0.0
 40
0.0
 40
0.0
 40
1.0
 40
1.0
 40
1.0
 40
1.0
 10
-49.810400000000001
 20
10.6386
 30
0.0
 10
-49.810400000000001
 20
10.6386
 30
0.0
 10
-47.000100000000003
 20
10.6386
 30
0.0
 10
-47.000100000000003
 20
10.6386
 30
0.0
  0
SPLINE
  5
36
100
AcDbEntity
  8
LC-004-006-MLN-0
370
    20
 62
     0
100
AcDbSpline
210
0.0
220
0.0
230
1.0
 70
     0
 71
     3
 72
     8
 73
     4
 74
     0
 42
0.0000000001
 43
0.0000000001
 40
0.0
 40
0.0
 40
0.0
 40
0.0
 40
1.0
 40
1.0
 40
1.0
 40
1.0
 10
-49.810400000000001
 20
10.6386
 30
0.0
 10
-49.810400000000001
 20
10.6386
 30
0.0
 10
-48.434699999999999
 20
21.388200000000001
 30
0.0
 10
-48.434699999999999
 20
21.388200000000001
 30
0.0
  0
SPLINE
  5
37
100
AcDbEntity
  8
LC-004-006-MLN-0
370
    20
 62
     0
100
AcDbSpline
210
0.0
220
0.0
230
1.0
 70
     0
 71
     3
 72
     8
 73
     4
 74
     0
 42
0.0000000001
 43
0.0000000001
 40
0.0
 40
0.0
 40
0.0
 40
0.0
 40
1.0
 40
1.0
 40
1.0
 40
1.0
 10
-48.434699999999999
 20
21.388200000000001
 30
0.0
 10
-48.434699999999999
 20
21.388200000000001
 30
0.0
 10
-47.000100000000003
 20
10.6386
 30
0.0
 10
-47.000100000000003
 20
10.6386
 30
0.0
  0
SPLINE
  5
38
100
AcDbEntity
  8
LC-004-006-MLN-0
370
    20
 62
     0
100
AcDbSpline
210
0.0
220
0.0
230
1.0
 70
     0
 71
     3
 72
     8
 73
     4
 74
     0
 42
0.0000000001
 43
0.0000000001
 40
0.0
 40
0.0
 40
0.0
 40
0.0
 40
1.0
 40
1.0
 40
1.0
 40
1.0
 10
-54.919900000000005
 20
34.161999999999999
 30
0.0
 10
-54.919900000000005
 20
34.161999999999999
 30
0.0
 10
-30.237000000000002
 20
34.161999999999999
 30
0.0
 10
-30.237000000000002
 20
34.161999999999999
 30
0.0
  0
SPLINE
  5
39
100
AcDbEntity
  8
LC-004-006-MLN-0
370
    20
 62
     0
100
AcDbSpline
210
0.0
220
0.0
230
1.0
 70
     0
 71
     3
 72
     8
 73
     4
 74
     0
 42
0.0000000001
 43
0.0000000001
 40
0.0
 40
0.0
 40
0.0
 40
0.0
 40
1.0
 40
1.0
 40
1.0
 40
1.0
 10
-54.919900000000005
 20
21.388200000000001
 30
0.0
 10
-54.919900000000005
 20
21.388200000000001
 30
0.0
 10
-30.237000000000002
 20
21.388200000000001
 30
0.0
 10
-30.237000000000002
 20
21.388200000000001
 30
0.0
  0
SPLINE
  5
3A
100
AcDbEntity
  8
LC-004-006-MLN-0
370
    40
 62
     0
100
AcDbSpline
210
0.0
220
0.0
230
1.0
 70
     0
 71
     3
 72
     8
 73
     4
 74
     0
 42
0.0000000001
 43
0.0000000001
 40
0.0
 40
0.0
 40
0.0
 40
0.0
 40
1.0
 40
1.0
 40
1.0
 40
1.0
 10
-30.237000000000002
 20
34.161999999999999
 30
0.0
 10
-30.237000000000002
 20
34.161999999999999
 30
0.0
 10
-10.8994
 20
34.161999999999999
 30
0.0
 10
-10.8994
 20
34.161999999999999
 30
0.0
  0
SPLINE
  5
3B
100
AcDbEntity
  8
LC-004-006-MLN-0
370
    40
 62
     0
100
AcDbSpline
210
0.0
220
0.0
230
1.0
 70
     0
 71
     3
 72
     8
 73
     4
 74
     0
 42
0.0000000001
 43
0.0000000001
 40
0.0
 40
0.0
 40
0.0
 40
0.0
 40
1.0
 40
1.0
 40
1.0
 40
1.0
 10
-8.9342000000000006
 20
32.196800000000003
 30
0.0
 10
-8.9342000000000006
 20
32.196800000000003
 30
0.0
 10
-7.8337000000000003
 20
32.196800000000003
 30
0.0
 10
-7.8337000000000003
 20
32.196800000000003
 30
0.0
  0
SPLINE
  5
3C
100
AcDbEntity
  8
LC-004-006-MLN-0
370
    20
 62
     0
100
AcDbSpline
210
0.0
220
0.0
230
1.0
 70
     0
 71
     3
 72
     8
 73
     4
 74
     0
 42
0.0000000001
 43
0.0000000001
 40
0.0
 40
0.0
 40
0.0
 40
0.0
 40
1.0
 40
1.0
 40
1.0
 40
1.0
 10
-30.826600000000003
 20
21.977700000000002
 30
0.0
 10
-30.826600000000003
 20
21.977700000000002
 30
0.0
 10
-10.4475
 20
21.977700000000002
 30
0.0
 10
-10.4475
 20
21.977700000000002
 30
0.0
  0
SPLINE
  5
3D
100
AcDbEntity
  8
LC-004-006-MLN-0
370
    20
 62
     0
100
AcDbSpline
210
0.0
220
0.0
230
1.0
 70
     0
 71
     3
 72
     8
 73
     4
 74
     0
 42
0.0000000001
 43
0.0000000001
 40
0.0
 40
0.0
 40
0.0
 40
0.0
 40
1.0
 40
1.0
 40
1.0
 40
1.0
 10
-30.826600000000003
 20
33.572400000000002
 30
0.0
 10
-30.826600000000003
 20
33.572400000000002
 30
0.0
 10
-10.4475
 20
33.572400000000002
 30
0.0
 10
-10.4475
 20
33.572400000000002
 30
0.0
  0
SPLINE
  5
3E
100
AcDbEntity
  8
LC-004-006-MLN-0
370
    40
 62
     0
100
AcDbSpline
210
0.0
220
0.0
230
1.0
 70
     0
 71
     3
 72
     8
 73
     4
 74
     0
 42
0.0000000001
 43
0.0000000001
 40
0.0
 40
0.0
 40
0.0
 40
0.0
 40
1.0
 40
1.0
 40
1.0
 40
1.0
 10
-7.8337000000000003
 20
20.995100000000001
 30
0.0
 10
-7.8337000000000003
 20
20.995100000000001
 30
0.0
 10
-7.8337000000000003
 20
22.567299999999999
 30
0.0
 10
-7.8337000000000003
 20
22.567299999999999
 30
0.0
  0
SPLINE
  5
3F
100
AcDbEntity
  8
LC-004-006-MLN-0
370
    40
 62
     0
100
AcDbSpline
210
0.0
220
0.0
230
1.0
 70
     0
 71
     3
 72
     8
 73
     4
 74
     0
 42
0.0000000001
 43
0.0000000001
 40
0.0
 40
0.0
 40
0.0
 40
0.0
 40
1.0
 40
1.0
 40
1.0
 40
1.0
 10
-7.8337000000000003
 20
23.353400000000001
 30
0.0
 10
-7.8337000000000003
 20
23.353400000000001
 30
0.0
 10
-7.8337000000000003
 20
32.196800000000003
 30
0.0
 10
-7.8337000000000003
 20
32.196800000000003
 30
0.0
  0
SPLINE
  5
40
100
AcDbEntity
  8
LC-004-006-MLN-0
370
    20
  6
New Line1
 62
     0
100
AcDbSpline
210
0.0
220
0.0
230
1.0
 70
     0
 71
     3
 72
     8
 73
     4
 74
     0
 42
0.0000000001
 43
0.0000000001
 40
0.0
 40
0.0
 40
0.0
 40
0.0
 40
1.0
 40
1.0
 40
1.0
 40
1.0
 10
-30.826600000000003
 20
27.735800000000001
 30
0.0
 10
-30.826600000000003
 20
27.735800000000001
 30
0.0
 10
-0.9555
 20
27.735800000000001
 30
0.0
 10
-0.9555
 20
27.735800000000001
 30
0.0
  0
SPLINE
  5
42
100
AcDbEntity
  8
LC-004-006-MLN-0
370
    40
 62
     0
100
AcDbSpline
210
0.0
220
0.0
230
1.0
 70
     0
 71
     3
 72
     8
 73
     4
 74
     0
 42
0.0000000001
 43
0.0000000001
 40
0.0
 40
0.0
 40
0.0
 40
0.0
 40
1.0
 40
1.0
 40
1.0
 40
1.0
 10
-7.8337000000000003
 20
32.982800000000005
 30
0.0
 10
-7.8337000000000003
 20
32.982800000000005
 30
0.0
 10
-7.8337000000000003
 20
34.555
 30
0.0
 10
-7.8337000000000003
 20
34.555
 30
0.0
  0
SPLINE
  5
43
100
AcDbEntity
  8
LC-004-006-MLN-0
370
    40
 62
     0
100
AcDbSpline
210
0.0
220
0.0
230
1.0
 70
     0
 71
     3
 72
     8
 73
     4
 74
     0
 42
0.0000000001
 43
0.0000000001
 40
0.0
 40
0.0
 40
0.0
 40
0.0
 40
1.0
 40
1.0
 40
1.0
 40
1.0
 10
-0.9555
 20
24.198399999999999
 30
0.0
 10
-0.9555
 20
24.198399999999999
 30
0.0
 10
-0.9555
 20
31.332100000000001
 30
0.0
 10
-0.9555
 20
31.332100000000001
 30
0.0
  0
SPLINE
  5
44
100
AcDbEntity
  8
LC-004-006-MLN-0
370
    40
 62
     0
100
AcDbSpline
210
0.0
220
0.0
230
1.0
 70
     0
 71
     3
 72
     8
 73
     4
 74
     0
 42
0.0000000001
 43
0.0000000001
 40
0.0
 40
0.0
 40
0.0
 40
0.0
 40
1.0
 40
1.0
 40
1.0
 40
1.0
 10
-1.4665000000000001
 20
23.549900000000001
 30
0.0
 10
-1.4665000000000001
 20
23.549900000000001
 30
0.0
 10
-1.4665000000000001
 20
32.0002
 30
0.0
 10
-1.4665000000000001
 20
32.0002
 30
0.0
  0
SPLINE
  5
45
100
AcDbEntity
  8
LC-004-006-MLN-0
370
    40
 62
     0
100
AcDbSpline
210
0.0
220
0.0
230
1.0
 70
     0
 71
     3
 72
     8
 73
     4
 74
     0
 42
0.0000000001
 43
0.0000000001
 40
0.0
 40
0.0
 40
0.0
 40
0.0
 40
1.0
 40
1.0
 40
1.0
 40
1.0
 10
-1.4665000000000001
 20
20.209099999999999
 30
0.0
 10
-1.4665000000000001
 20
20.209099999999999
 30
0.0
 10
-1.4665000000000001
 20
22.567299999999999
 30
0.0
 10
-1.4665000000000001
 20
22.567299999999999
 30
0.0
  0
SPLINE
  5
46
100
AcDbEntity
  8
LC-004-006-MLN-0
370
    40
 62
     0
100
AcDbSpline
210
0.0
220
0.0
230
1.0
 70
     0
 71
     3
 72
     8
 73
     4
 74
     0
 42
0.0000000001
 43
0.0000000001
 40
0.0
 40
0.0
 40
0.0
 40
0.0
 40
1.0
 40
1.0
 40
1.0
 40
1.0
 10
-1.4665000000000001
 20
32.982800000000005
 30
0.0
 10
-1.4665000000000001
 20
32.982800000000005
 30
0.0
 10
-1.4665000000000001
 20
35.341100000000004
 30
0.0
 10
-1.4665000000000001
 20
35.341100000000004
 30
0.0
  0
SPLINE
  5
47
100
AcDbEntity
  8
LC-004-006-MLN-0
370
    40
 62
     0
100
AcDbSpline
210
0.0
220
0.0
230
1.0
 70
     0
 71
     3
 72
     8
 73
     4
 74
     0
 42
0.0000000001
 43
0.0000000001
 40
0.0
 40
0.0
 40
0.0
 40
0.0
 40
1.0
 40
1.0
 40
1.0
 40
1.0
 10
-0.9555
 20
20.209099999999999
 30
0.0
 10
-0.9555
 20
20.209099999999999
 30
0.0
 10
-0.9555
 20
22.567299999999999
 30
0.0
 10
-0.9555
 20
22.567299999999999
 30
0.0
  0
SPLINE
  5
48
100
AcDbEntity
  8
LC-004-006-MLN-0
370
    40
 62
     0
100
AcDbSpline
210
0.0
220
0.0
230
1.0
 70
     0
 71
     3
 72
     8
 73
     4
 74
     0
 42
0.0000000001
 43
0.0000000001
 40
0.0
 40
0.0
 40
0.0
 40
0.0
 40
1.0
 40
1.0
 40
1.0
 40
1.0
 10
-0.9555
 20
32.982800000000005
 30
0.0
 10
-0.9555
 20
32.982800000000005
 30
0.0
 10
-0.9555
 20
35.341100000000004
 30
0.0
 10
-0.9555
 20
35.341100000000004
 30
0.0
  0
SPLINE
  5
49
100
AcDbEntity
  8
LC-004-006-MLN-0
370
    40
 62
     0
100
AcDbSpline
210
0.0
220
0.0
230
1.0
 70
     0
 71
     3
 72
     8
 73
     4
 74
     0
 42
0.0000000001
 43
0.0000000001
 40
0.0
 40
0.0
 40
0.0
 40
0.0
 40
1.0
 40
1.0
 40
1.0
 40
1.0
 10
-8.9342000000000006
 20
23.353400000000001
 30
0.0
 10
-8.9342000000000006
 20
23.353400000000001
 30
0.0
 10
-7.8337000000000003
 20
23.353400000000001
 30
0.0
 10
-7.8337000000000003
 20
23.353400000000001
 30
0.0
  0
SPLINE
  5
4A
100
AcDbEntity
  8
LC-004-006-MLN-0
370
    40
 62
     0
100
AcDbSpline
210
0.0
220
0.0
230
1.0
 70
     0
 71
     3
 72
     8
 73
     4
 74
     0
 42
0.0000000001
 43
0.0000000001
 40
0.0
 40
0.0
 40
0.0
 40
0.0
 40
1.0
 40
1.0
 40
1.0
 40
1.0
 10
-8.9342000000000006
 20
23.353400000000001
 30
0.0
 10
-8.9342000000000006
 20
23.353400000000001
 30
0.0
 10
-8.9342000000000006
 20
32.196800000000003
 30
0.0
 10
-8.9342000000000006
 20
32.196800000000003
 30
0.0
  0
SPLINE
  5
4B
100
AcDbEntity
  8
LC-004-006-MLN-0
370
    40
 62
     0
100
AcDbSpline
210
0.0
220
0.0
230
1.0
 70
     0
 71
     3
 72
     8
 73
     4
 74
     0
 42
0.0000000001
 43
0.0000000001
 40
0.0
 40
0.0
 40
0.0
 40
0.0
 40
1.0
 40
1.0
 40
1.0
 40
1.0
 10
-10.8994
 20
21.388200000000001
 30
0.0
 10
-10.8994
 20
21.388200000000001
 30
0.0
 10
-9.7202999999999999
 20
22.567299999999999
 30
0.0
 10
-9.7202999999999999
 20
22.567299999999999
 30
0.0
  0
SPLINE
  5
4C
100
AcDbEntity
  8
LC-004-006-MLN-0
370
    40
 62
     0
100
AcDbSpline
210
0.0
220
0.0
230
1.0
 70
     0
 71
     3
 72
     8
 73
     4
 74
     0
 42
0.0000000001
 43
0.0000000001
 40
0.0
 40
0.0
 40
0.0
 40
0.0
 40
1.0
 40
1.0
 40
1.0
 40
1.0
 10
-10.8994
 20
34.161999999999999
 30
0.0
 10
-10.8994
 20
34.161999999999999
 30
0.0
 10
-9.7202999999999999
 20
32.982800000000005
 30
0.0
 10
-9.7202999999999999
 20
32.982800000000005
 30
0.0
  0
SPLINE
  5
4D
100
AcDbEntity
  8
LC-004-006-MLN-0
370
    40
 62
     0
100
AcDbSpline
210
0.0
220
0.0
230
1.0
 70
     0
 71
     3
 72
     8
 73
     4
 74
     0
 42
0.0000000001
 43
0.0000000001
 40
0.0
 40
0.0
 40
0.0
 40
0.0
 40
1.0
 40
1.0
 40
1.0
 40
1.0
 10
-10.8994
 20
32.982800000000005
 30
0.0
 10
-10.8994
 20
32.982800000000005
 30
0.0
 10
-10.8994
 20
34.161999999999999
 30
0.0
 10
-10.8994
 20
34.161999999999999
 30
0.0
  0
SPLINE
  5
4E
100
AcDbEntity
  8
LC-004-006-MLN-0
370
    40
 62
     0
100
AcDbSpline
210
0.0
220
0.0
230
1.0
 70
     0
 71
     3
 72
     8
 73
     4
 74
     0
 42
0.0000000001
 43
0.0000000001
 40
0.0
 40
0.0
 40
0.0
 40
0.0
 40
1.0
 40
1.0
 40
1.0
 40
1.0
 10
-30.237000000000002
 20
21.388200000000001
 30
0.0
 10
-30.237000000000002
 20
21.388200000000001
 30
0.0
 10
-10.8994
 20
21.388200000000001
 30
0.0
 10
-10.8994
 20
21.388200000000001
 30
0.0
  0
SPLINE
  5
4F
100
AcDbEntity
  8
LC-004-006-MLN-0
370
    40
 62
     0
100
AcDbSpline
210
0.0
220
0.0
230
1.0
 70
     0
 71
     3
 72
     8
 73
     4
 74
     0
 42
0.0000000001
 43
0.0000000001
 40
0.0
 40
0.0
 40
0.0
 40
0.0
 40
1.0
 40
1.0
 40
1.0
 40
1.0
 10
-7.6372
 20
32.0002
 30
0.0
 10
-7.6372
 20
32.0002
 30
0.0
 10
-7.6372
 20
30.683600000000002
 30
0.0
 10
-7.6372
 20
30.683600000000002
 30
0.0
  0
SPLINE
  5
50
100
AcDbEntity
  8
LC-004-006-MLN-0
370
    40
 62
     0
100
AcDbSpline
210
0.0
220
0.0
230
1.0
 70
     0
 71
     3
 72
     8
 73
     4
 74
     0
 42
0.0000000001
 43
0.0000000001
 40
0.0
 40
0.0
 40
0.0
 40
0.0
 40
1.0
 40
1.0
 40
1.0
 40
1.0
 10
-7.6372
 20
21.191700000000001
 30
0.0
 10
-7.6372
 20
21.191700000000001
 30
0.0
 10
-7.6372
 20
22.174300000000002
 30
0.0
 10
-7.6372
 20
22.174300000000002
 30
0.0
  0
SPLINE
  5
51
100
AcDbEntity
  8
LC-004-006-MLN-0
370
    40
 62
     0
100
AcDbSpline
210
0.0
220
0.0
230
1.0
 70
     0
 71
     3
 72
     8
 73
     4
 74
     0
 42
0.0000000001
 43
0.0000000001
 40
0.0
 40
0.0
 40
0.0
 40
0.0
 40
1.0
 40
1.0
 40
1.0
 40
1.0
 10
-7.6372
 20
22.174300000000002
 30
0.0
 10
-7.6372
 20
22.174300000000002
 30
0.0
 10
-1.4665000000000001
 20
22.174300000000002
 30
0.0
 10
-1.4665000000000001
 20
22.174300000000002
 30
0.0
  0
SPLINE
  5
52
100
AcDbEntity
  8
LC-004-006-MLN-0
370
    40
 62
     0
100
AcDbSpline
210
0.0
220
0.0
230
1.0
 70
     0
 71
     3
 72
     8
 73
     4
 74
     0
 42
0.0000000001
 43
0.0000000001
 40
0.0
 40
0.0
 40
0.0
 40
0.0
 40
1.0
 40
1.0
 40
1.0
 40
1.0
 10
-7.6372
 20
23.549900000000001
 30
0.0
 10
-7.6372
 20
23.549900000000001
 30
0.0
 10
-7.6372
 20
24.846900000000002
 30
0.0
 10
-7.6372
 20
24.846900000000002
 30
0.0
  0
SPLINE
  5
53
100
AcDbEntity
  8
LC-004-006-MLN-0
370
    40
 62
     0
100
AcDbSpline
210
0.0
220
0.0
230
1.0
 70
     0
 71
     3
 72
     8
 73
     4
 74
     0
 42
0.0000000001
 43
0.0000000001
 40
0.0
 40
0.0
 40
0.0
 40
0.0
 40
1.0
 40
1.0
 40
1.0
 40
1.0
 10
-7.6372
 20
23.549900000000001
 30
0.0
 10
-7.6372
 20
23.549900000000001
 30
0.0
 10
-1.4665000000000001
 20
23.549900000000001
 30
0.0
 10
-1.4665000000000001
 20
23.549900000000001
 30
0.0
  0
SPLINE
  5
54
100
AcDbEntity
  8
LC-004-006-MLN-0
370
    40
 62
     0
100
AcDbSpline
210
0.0
220
0.0
230
1.0
 70
     0
 71
     3
 72
     8
 73
     4
 74
     0
 42
0.0000000001
 43
0.0000000001
 40
0.0
 40
0.0
 40
0.0
 40
0.0
 40
1.0
 40
1.0
 40
1.0
 40
1.0
 10
-7.6372
 20
27.008600000000001
 30
0.0
 10
-7.6372
 20
27.008600000000001
 30
0.0
 10
-7.6372
 20
28.521800000000002
 30
0.0
 10
-7.6372
 20
28.521800000000002
 30
0.0
  0
SPLINE
  5
55
100
AcDbEntity
  8
LC-004-006-MLN-0
370
    40
 62
     0
100
AcDbSpline
210
0.0
220
0.0
230
1.0
 70
     0
 71
     3
 72
     8
 73
     4
 74
     0
 42
0.0000000001
 43
0.0000000001
 40
0.0
 40
0.0
 40
0.0
 40
0.0
 40
1.0
 40
1.0
 40
1.0
 40
1.0
 10
-7.6372
 20
24.846900000000002
 30
0.0
 10
-7.6372
 20
24.846900000000002
 30
0.0
 10
-1.4665000000000001
 20
24.846900000000002
 30
0.0
 10
-1.4665000000000001
 20
24.846900000000002
 30
0.0
  0
SPLINE
  5
56
100
AcDbEntity
  8
LC-004-006-MLN-0
370
    40
 62
     0
100
AcDbSpline
210
0.0
220
0.0
230
1.0
 70
     0
 71
     3
 72
     8
 73
     4
 74
     0
 42
0.0000000001
 43
0.0000000001
 40
0.0
 40
0.0
 40
0.0
 40
0.0
 40
1.0
 40
1.0
 40
1.0
 40
1.0
 10
-0.9555
 20
34.161999999999999
 30
0.0
 10
-0.9555
 20
34.161999999999999
 30
0.0
 10
-0.9555
 20
34.161999999999999
 30
0.0
 10
-0.9555
 20
34.161999999999999
 30
0.0
  0
SPLINE
  5
57
100
AcDbEntity
  8
LC-004-006-MLN-0
370
    40
 62
     0
100
AcDbSpline
210
0.0
220
0.0
230
1.0
 70
     0
 71
     3
 72
     8
 73
     4
 74
     0
 42
0.0000000001
 43
0.0000000001
 40
0.0
 40
0.0
 40
0.0
 40
0.0
 40
1.0
 40
1.0
 40
1.0
 40
1.0
 10
-7.6372
 20
34.279900000000005
 30
0.0
 10
-7.6372
 20
34.279900000000005
 30
0.0
 10
-7.6372
 20
33.375900000000001
 30
0.0
 10
-7.6372
 20
33.375900000000001
 30
0.0
  0
SPLINE
  5
58
100
AcDbEntity
  8
LC-004-006-MLN-0
370
    40
 62
     0
100
AcDbSpline
210
0.0
220
0.0
230
1.0
 70
     0
 71
     3
 72
     8
 73
     4
 74
     0
 42
0.0000000001
 43
0.0000000001
 40
0.0
 40
0.0
 40
0.0
 40
0.0
 40
1.0
 40
1.0
 40
1.0
 40
1.0
 10
-0.9555
 20
21.388200000000001
 30
0.0
 10
-0.9555
 20
21.388200000000001
 30
0.0
 10
-0.9555
 20
21.388200000000001
 30
0.0
 10
-0.9555
 20
21.388200000000001
 30
0.0
  0
SPLINE
  5
59
100
AcDbEntity
  8
LC-004-006-MLN-0
370
    40
 62
     0
100
AcDbSpline
210
0.0
220
0.0
230
1.0
 70
     0
 71
     3
 72
     8
 73
     4
 74
     0
 42
0.0000000001
 43
0.0000000001
 40
0.0
 40
0.0
 40
0.0
 40
0.0
 40
1.0
 40
1.0
 40
1.0
 40
1.0
 10
-30.237000000000002
 20
21.388200000000001
 30
0.0
 10
-30.237000000000002
 20
21.388200000000001
 30
0.0
 10
-30.237000000000002
 20
34.161999999999999
 30
0.0
 10
-30.237000000000002
 20
34.161999999999999
 30
0.0
  0
SPLINE
  5
5A
100
AcDbEntity
  8
LC-004-006-MLN-0
370
    40
 62
     0
100
AcDbSpline
210
0.0
220
0.0
230
1.0
 70
     0
 71
     3
 72
     8
 73
     4
 74
     0
 42
0.0000000001
 43
0.0000000001
 40
0.0
 40
0.0
 40
0.0
 40
0.0
 40
1.0
 40
1.0
 40
1.0
 40
1.0
 10
-30.826600000000003
 20
21.977700000000002
 30
0.0
 10
-30.826600000000003
 20
21.977700000000002
 30
0.0
 10
-30.237000000000002
 20
21.388200000000001
 30
0.0
 10
-30.237000000000002
 20
21.388200000000001
 30
0.0
  0
SPLINE
  5
5B
100
AcDbEntity
  8
LC-004-006-MLN-0
370
    40
 62
     0
100
AcDbSpline
210
0.0
220
0.0
230
1.0
 70
     0
 71
     3
 72
     8
 73
     4
 74
     0
 42
0.0000000001
 43
0.0000000001
 40
0.0
 40
0.0
 40
0.0
 40
0.0
 40
1.0
 40
1.0
 40
1.0
 40
1.0
 10
-30.826600000000003
 20
33.572400000000002
 30
0.0
 10
-30.826600000000003
 20
33.572400000000002
 30
0.0
 10
-30.237000000000002
 20
34.161999999999999
 30
0.0
 10
-30.237000000000002
 20
34.161999999999999
 30
0.0
  0
SPLINE
  5
5C
100
AcDbEntity
  8
LC-004-006-MLN-0
370
    40
 62
     0
100
AcDbSpline
210
0.0
220
0.0
230
1.0
 70
     0
 71
     3
 72
     8
 73
     4
 74
     0
 42
0.0000000001
 43
0.0000000001
 40
0.0
 40
0.0
 40
0.0
 40
0.0
 40
1.0
 40
1.0
 40
1.0
 40
1.0
 10
-30.826600000000003
 20
33.572400000000002
 30
0.0
 10
-30.826600000000003
 20
33.572400000000002
 30
0.0
 10
-30.826600000000003
 20
21.977700000000002
 30
0.0
 10
-30.826600000000003
 20
21.977700000000002
 30
0.0
  0
SPLINE
  5
5D
100
AcDbEntity
  8
LC-004-006-MLN-0
370
    40
 62
     0
100
AcDbSpline
210
0.0
220
0.0
230
1.0
 70
     0
 71
     3
 72
     8
 73
     4
 74
     0
 42
0.0000000001
 43
0.0000000001
 40
0.0
 40
0.0
 40
0.0
 40
0.0
 40
1.0
 40
1.0
 40
1.0
 40
1.0
 10
-10.8994
 20
21.388200000000001
 30
0.0
 10
-10.8994
 20
21.388200000000001
 30
0.0
 10
-10.8994
 20
24.257400000000001
 30
0.0
 10
-10.8994
 20
24.257400000000001
 30
0.0
  0
SPLINE
  5
5E
100
AcDbEntity
  8
LC-004-006-MLN-0
370
    40
 62
     0
100
AcDbSpline
210
0.0
220
0.0
230
1.0
 70
     0
 71
     3
 72
     8
 73
     4
 74
     0
 42
0.0000000001
 43
0.0000000001
 40
0.0
 40
0.0
 40
0.0
 40
0.0
 40
1.0
 40
1.0
 40
1.0
 40
1.0
 10
-10.8994
 20
24.198399999999999
 30
0.0
 10
-10.8994
 20
24.198399999999999
 30
0.0
 10
-10.8994
 20
31.332100000000001
 30
0.0
 10
-10.8994
 20
31.332100000000001
 30
0.0
  0
SPLINE
  5
5F
100
AcDbEntity
  8
LC-004-006-MLN-0
370
    40
 62
     0
100
AcDbSpline
210
0.0
220
0.0
230
1.0
 70
     0
 71
     3
 72
     8
 73
     4
 74
     0
 42
0.0000000001
 43
0.0000000001
 40
0.0
 40
0.0
 40
0.0
 40
0.0
 40
1.0
 40
1.0
 40
1.0
 40
1.0
 10
-7.8337000000000003
 20
23.353400000000001
 30
0.0
 10
-7.8337000000000003
 20
23.353400000000001
 30
0.0
 10
-7.8337000000000003
 20
22.567299999999999
 30
0.0
 10
-7.8337000000000003
 20
22.567299999999999
 30
0.0
  0
SPLINE
  5
60
100
AcDbEntity
  8
LC-004-006-MLN-0
370
    40
 62
     0
100
AcDbSpline
210
0.0
220
0.0
230
1.0
 70
     0
 71
     3
 72
     8
 73
     4
 74
     0
 42
0.0000000001
 43
0.0000000001
 40
0.0
 40
0.0
 40
0.0
 40
0.0
 40
1.0
 40
1.0
 40
1.0
 40
1.0
 10
-1.5451000000000001
 20
23.549900000000001
 30
0.0
 10
-1.5451000000000001
 20
23.549900000000001
 30
0.0
 10
-1.5451000000000001
 20
22.567299999999999
 30
0.0
 10
-1.5451000000000001
 20
22.567299999999999
 30
0.0
  0
SPLINE
  5
61
100
AcDbEntity
  8
LC-004-006-MLN-0
370
    40
 62
     0
100
AcDbSpline
210
0.0
220
0.0
230
1.0
 70
     0
 71
     3
 72
     8
 73
     4
 74
     0
 42
0.0000000001
 43
0.0000000001
 40
0.0
 40
0.0
 40
0.0
 40
0.0
 40
1.0
 40
1.0
 40
1.0
 40
1.0
 10
-0.9555
 20
22.567299999999999
 30
0.0
 10
-0.9555
 20
22.567299999999999
 30
0.0
 10
-0.9555
 20
24.198399999999999
 30
0.0
 10
-0.9555
 20
24.198399999999999
 30
0.0
  0
SPLINE
  5
62
100
AcDbEntity
  8
LC-004-006-MLN-0
370
    40
 62
     0
100
AcDbSpline
210
0.0
220
0.0
230
1.0
 70
     0
 71
     3
 72
    12
 73
     8
 74
     0
 42
0.0000000001
 43
0.0000000001
 40
0.0
 40
0.0
 40
0.0
 40
0.0
 40
0.5
 40
0.5
 40
0.5
 40
0.5
 40
1.0
 40
1.0
 40
1.0
 40
1.0
 10
-7.8337000000000003
 20
20.995100000000001
 30
0.0
 10
-7.8337000000000003
 20
20.995100000000001
 30
0.0
 10
-7.6962000000000002
 20
20.720000000000002
 30
0.0
 10
-7.6962000000000002
 20
20.720000000000002
 30
0.0
 10
-7.6962000000000002
 20
20.720000000000002
 30
0.0
 10
-7.6962000000000002
 20
20.720000000000002
 30
0.0
 10
-7.4407000000000005
 20
20.6021
 30
0.0
 10
-7.4407000000000005
 20
20.6021
 30
0.0
  0
SPLINE
  5
63
100
AcDbEntity
  8
LC-004-006-MLN-0
370
    40
 62
     0
100
AcDbSpline
210
0.0
220
0.0
230
1.0
 70
     0
 71
     3
 72
     8
 73
     4
 74
     0
 42
0.0000000001
 43
0.0000000001
 40
0.0
 40
0.0
 40
0.0
 40
0.0
 40
1.0
 40
1.0
 40
1.0
 40
1.0
 10
-7.4407000000000005
 20
20.6021
 30
0.0
 10
-7.4407000000000005
 20
20.6021
 30
0.0
 10
-1.4665000000000001
 20
20.6021
 30
0.0
 10
-1.4665000000000001
 20
20.6021
 30
0.0
  0
SPLINE
  5
64
100
AcDbEntity
  8
LC-004-006-MLN-0
370
    40
 62
     0
100
AcDbSpline
210
0.0
220
0.0
230
1.0
 70
     0
 71
     3
 72
     8
 73
     4
 74
     0
 42
0.0000000001
 43
0.0000000001
 40
0.0
 40
0.0
 40
0.0
 40
0.0
 40
1.0
 40
1.0
 40
1.0
 40
1.0
 10
-1.4665000000000001
 20
20.209099999999999
 30
0.0
 10
-1.4665000000000001
 20
20.209099999999999
 30
0.0
 10
-0.9555
 20
20.209099999999999
 30
0.0
 10
-0.9555
 20
20.209099999999999
 30
0.0
  0
SPLINE
  5
65
100
AcDbEntity
  8
LC-004-006-MLN-0
370
    40
 62
     0
100
AcDbSpline
210
0.0
220
0.0
230
1.0
 70
     0
 71
     3
 72
     8
 73
     4
 74
     0
 42
0.0000000001
 43
0.0000000001
 40
0.0
 40
0.0
 40
0.0
 40
0.0
 40
1.0
 40
1.0
 40
1.0
 40
1.0
 10
-1.4665000000000001
 20
35.341100000000004
 30
0.0
 10
-1.4665000000000001
 20
35.341100000000004
 30
0.0
 10
-0.9555
 20
35.341100000000004
 30
0.0
 10
-0.9555
 20
35.341100000000004
 30
0.0
  0
SPLINE
  5
66
100
AcDbEntity
  8
LC-004-006-MLN-0
370
    40
 62
     0
100
AcDbSpline
210
0.0
220
0.0
230
1.0
 70
     0
 71
     3
 72
     8
 73
     4
 74
     0
 42
0.0000000001
 43
0.0000000001
 40
0.0
 40
0.0
 40
0.0
 40
0.0
 40
1.0
 40
1.0
 40
1.0
 40
1.0
 10
-7.4407000000000005
 20
34.948
 30
0.0
 10
-7.4407000000000005
 20
34.948
 30
0.0
 10
-1.4665000000000001
 20
34.948
 30
0.0
 10
-1.4665000000000001
 20
34.948
 30
0.0
  0
SPLINE
  5
67
100
AcDbEntity
  8
LC-004-006-MLN-0
370
    40
 62
     0
100
AcDbSpline
210
0.0
220
0.0
230
1.0
 70
     0
 71
     3
 72
    12
 73
     8
 74
     0
 42
0.0000000001
 43
0.0000000001
 40
0.0
 40
0.0
 40
0.0
 40
0.0
 40
0.5
 40
0.5
 40
0.5
 40
0.5
 40
1.0
 40
1.0
 40
1.0
 40
1.0
 10
-7.4407000000000005
 20
34.948
 30
0.0
 10
-7.4407000000000005
 20
34.948
 30
0.0
 10
-7.6962000000000002
 20
34.810500000000005
 30
0.0
 10
-7.6962000000000002
 20
34.810500000000005
 30
0.0
 10
-7.6962000000000002
 20
34.810500000000005
 30
0.0
 10
-7.6962000000000002
 20
34.810500000000005
 30
0.0
 10
-7.8337000000000003
 20
34.555
 30
0.0
 10
-7.8337000000000003
 20
34.555
 30
0.0
  0
SPLINE
  5
68
100
AcDbEntity
  8
LC-004-006-MLN-0
370
    40
 62
     0
100
AcDbSpline
210
0.0
220
0.0
230
1.0
 70
     0
 71
     3
 72
     8
 73
     4
 74
     0
 42
0.0000000001
 43
0.0000000001
 40
0.0
 40
0.0
 40
0.0
 40
0.0
 40
1.0
 40
1.0
 40
1.0
 40
1.0
 10
-7.6372
 20
34.279900000000005
 30
0.0
 10
-7.6372
 20
34.279900000000005
 30
0.0
 10
-1.4665000000000001
 20
34.279900000000005
 30
0.0
 10
-1.4665000000000001
 20
34.279900000000005
 30
0.0
  0
SPLINE
  5
69
100
AcDbEntity
  8
LC-004-006-MLN-0
370
    40
 62
     0
100
AcDbSpline
210
0.0
220
0.0
230
1.0
 70
     0
 71
     3
 72
     8
 73
     4
 74
     0
 42
0.0000000001
 43
0.0000000001
 40
0.0
 40
0.0
 40
0.0
 40
0.0
 40
1.0
 40
1.0
 40
1.0
 40
1.0
 10
-7.6372
 20
33.375900000000001
 30
0.0
 10
-7.6372
 20
33.375900000000001
 30
0.0
 10
-1.4665000000000001
 20
33.375900000000001
 30
0.0
 10
-1.4665000000000001
 20
33.375900000000001
 30
0.0
  0
SPLINE
  5
6A
100
AcDbEntity
  8
LC-004-006-MLN-0
370
    40
 62
     0
100
AcDbSpline
210
0.0
220
0.0
230
1.0
 70
     0
 71
     3
 72
     8
 73
     4
 74
     0
 42
0.0000000001
 43
0.0000000001
 40
0.0
 40
0.0
 40
0.0
 40
0.0
 40
1.0
 40
1.0
 40
1.0
 40
1.0
 10
-7.6372
 20
27.008600000000001
 30
0.0
 10
-7.6372
 20
27.008600000000001
 30
0.0
 10
-1.4665000000000001
 20
27.008600000000001
 30
0.0
 10
-1.4665000000000001
 20
27.008600000000001
 30
0.0
  0
SPLINE
  5
6B
100
AcDbEntity
  8
LC-004-006-MLN-0
370
    40
 62
     0
100
AcDbSpline
210
0.0
220
0.0
230
1.0
 70
     0
 71
     3
 72
     8
 73
     4
 74
     0
 42
0.0000000001
 43
0.0000000001
 40
0.0
 40
0.0
 40
0.0
 40
0.0
 40
1.0
 40
1.0
 40
1.0
 40
1.0
 10
-7.6372
 20
28.521800000000002
 30
0.0
 10
-7.6372
 20
28.521800000000002
 30
0.0
 10
-1.4665000000000001
 20
28.521800000000002
 30
0.0
 10
-1.4665000000000001
 20
28.521800000000002
 30
0.0
  0
SPLINE
  5
6C
100
AcDbEntity
  8
LC-004-006-MLN-0
370
    40
 62
     0
100
AcDbSpline
210
0.0
220
0.0
230
1.0
 70
     0
 71
     3
 72
     8
 73
     4
 74
     0
 42
0.0000000001
 43
0.0000000001
 40
0.0
 40
0.0
 40
0.0
 40
0.0
 40
1.0
 40
1.0
 40
1.0
 40
1.0
 10
-7.6372
 20
32.0002
 30
0.0
 10
-7.6372
 20
32.0002
 30
0.0
 10
-1.4665000000000001
 20
32.0002
 30
0.0
 10
-1.4665000000000001
 20
32.0002
 30
0.0
  0
SPLINE
  5
6D
100
AcDbEntity
  8
LC-004-006-MLN-0
370
    40
 62
     0
100
AcDbSpline
210
0.0
220
0.0
230
1.0
 70
     0
 71
     3
 72
     8
 73
     4
 74
     0
 42
0.0000000001
 43
0.0000000001
 40
0.0
 40
0.0
 40
0.0
 40
0.0
 40
1.0
 40
1.0
 40
1.0
 40
1.0
 10
-7.6372
 20
30.683600000000002
 30
0.0
 10
-7.6372
 20
30.683600000000002
 30
0.0
 10
-1.4665000000000001
 20
30.683600000000002
 30
0.0
 10
-1.4665000000000001
 20
30.683600000000002
 30
0.0
  0
SPLINE
  5
6E
100
AcDbEntity
  8
LC-004-006-MLN-0
370
    40
 62
     0
100
AcDbSpline
210
0.0
220
0.0
230
1.0
 70
     0
 71
     3
 72
     8
 73
     4
 74
     0
 42
0.0000000001
 43
0.0000000001
 40
0.0
 40
0.0
 40
0.0
 40
0.0
 40
1.0
 40
1.0
 40
1.0
 40
1.0
 10
-7.6372
 20
21.191700000000001
 30
0.0
 10
-7.6372
 20
21.191700000000001
 30
0.0
 10
-1.4665000000000001
 20
21.191700000000001
 30
0.0
 10
-1.4665000000000001
 20
21.191700000000001
 30
0.0
  0
SPLINE
  5
6F
100
AcDbEntity
  8
LC-004-006-MLN-0
370
    20
 62
     0
100
AcDbSpline
210
0.0
220
0.0
230
1.0
 70
     0
 71
     3
 72
     8
 73
     4
 74
     0
 42
0.0000000001
 43
0.0000000001
 40
0.0
 40
0.0
 40
0.0
 40
0.0
 40
1.0
 40
1.0
 40
1.0
 40
1.0
 10
-46.017500000000005
 20
4.1534000000000004
 30
0.0
 10
-46.017500000000005
 20
4.1534000000000004
 30
0.0
 10
7.3769
 20
4.1534000000000004
 30
0.0
 10
7.3769
 20
4.1534000000000004
 30
0.0
  0
SPLINE
  5
70
100
AcDbEntity
  8
LC-004-006-MLN-0
370
    20
 62
     0
100
AcDbSpline
210
0.0
220
0.0
230
1.0
 70
     0
 71
     3
 72
     8
 73
     4
 74
     0
 42
0.0000000001
 43
0.0000000001
 40
0.0
 40
0.0
 40
0.0
 40
0.0
 40
1.0
 40
1.0
 40
1.0
 40
1.0
 10
0.6166
 20
4.1534000000000004
 30
0.0
 10
0.6166
 20
4.1534000000000004
 30
0.0
 10
2.9749000000000003
 20
3.8979000000000004
 30
0.0
 10
2.9749000000000003
 20
3.8979000000000004
 30
0.0
  0
SPLINE
  5
71
100
AcDbEntity
  8
LC-004-006-MLN-0
370
    20
 62
     0
100
AcDbSpline
210
0.0
220
0.0
230
1.0
 70
     0
 71
     3
 72
     8
 73
     4
 74
     0
 42
0.0000000001
 43
0.0000000001
 40
0.0
 40
0.0
 40
0.0
 40
0.0
 40
1.0
 40
1.0
 40
1.0
 40
1.0
 10
0.6166
 20
4.1534000000000004
 30
0.0
 10
0.6166
 20
4.1534000000000004
 30
0.0
 10
2.9749000000000003
 20
4.4874999999999998
 30
0.0
 10
2.9749000000000003
 20
4.4874999999999998
 30
0.0
  0
SPLINE
  5
72
100
AcDbEntity
  8
LC-004-006-MLN-0
370
    20
 62
     0
100
AcDbSpline
210
0.0
220
0.0
230
1.0
 70
     0
 71
     3
 72
     8
 73
     4
 74
     0
 42
0.0000000001
 43
0.0000000001
 40
0.0
 40
0.0
 40
0.0
 40
0.0
 40
1.0
 40
1.0
 40
1.0
 40
1.0
 10
-2.1936
 20
4.1534000000000004
 30
0.0
 10
-2.1936
 20
4.1534000000000004
 30
0.0
 10
2.9749000000000003
 20
3.5049000000000001
 30
0.0
 10
2.9749000000000003
 20
3.5049000000000001
 30
0.0
  0
SPLINE
  5
73
100
AcDbEntity
  8
LC-004-006-MLN-0
370
    20
 62
     0
100
AcDbSpline
210
0.0
220
0.0
230
1.0
 70
     0
 71
     3
 72
     8
 73
     4
 74
     0
 42
0.0000000001
 43
0.0000000001
 40
0.0
 40
0.0
 40
0.0
 40
0.0
 40
1.0
 40
1.0
 40
1.0
 40
1.0
 10
-2.1936
 20
4.1534000000000004
 30
0.0
 10
-2.1936
 20
4.1534000000000004
 30
0.0
 10
2.9749000000000003
 20
4.8805000000000005
 30
0.0
 10
2.9749000000000003
 20
4.8805000000000005
 30
0.0
  0
SPLINE
  5
74
100
AcDbEntity
  8
LC-004-006-MLN-0
370
    20
 62
     0
100
AcDbSpline
210
0.0
220
0.0
230
1.0
 70
     0
 71
     3
 72
     8
 73
     4
 74
     0
 42
0.0000000001
 43
0.0000000001
 40
0.0
 40
0.0
 40
0.0
 40
0.0
 40
1.0
 40
1.0
 40
1.0
 40
1.0
 10
-5.0039000000000007
 20
4.1534000000000004
 30
0.0
 10
-5.0039000000000007
 20
4.1534000000000004
 30
0.0
 10
2.9749000000000003
 20
3.1119000000000003
 30
0.0
 10
2.9749000000000003
 20
3.1119000000000003
 30
0.0
  0
SPLINE
  5
75
100
AcDbEntity
  8
LC-004-006-MLN-0
370
    20
 62
     0
100
AcDbSpline
210
0.0
220
0.0
230
1.0
 70
     0
 71
     3
 72
     8
 73
     4
 74
     0
 42
0.0000000001
 43
0.0000000001
 40
0.0
 40
0.0
 40
0.0
 40
0.0
 40
1.0
 40
1.0
 40
1.0
 40
1.0
 10
-5.0039000000000007
 20
4.1534000000000004
 30
0.0
 10
-5.0039000000000007
 20
4.1534000000000004
 30
0.0
 10
2.9749000000000003
 20
5.1950000000000003
 30
0.0
 10
2.9749000000000003
 20
5.1950000000000003
 30
0.0
  0
SPLINE
  5
76
100
AcDbEntity
  8
LC-004-006-MLN-0
370
    20
 62
     0
100
AcDbSpline
210
0.0
220
0.0
230
1.0
 70
     0
 71
     3
 72
     8
 73
     4
 74
     0
 42
0.0000000001
 43
0.0000000001
 40
0.0
 40
0.0
 40
0.0
 40
0.0
 40
1.0
 40
1.0
 40
1.0
 40
1.0
 10
2.9159000000000002
 20
5.5880000000000001
 30
0.0
 10
2.9159000000000002
 20
5.5880000000000001
 30
0.0
 10
2.9159000000000002
 20
2.7778
 30
0.0
 10
2.9159000000000002
 20
2.7778
 30
0.0
  0
SPLINE
  5
77
100
AcDbEntity
  8
LC-004-006-MLN-0
370
    20
 62
     0
100
AcDbSpline
210
0.0
220
0.0
230
1.0
 70
     0
 71
     3
 72
     8
 73
     4
 74
     0
 42
0.0000000001
 43
0.0000000001
 40
0.0
 40
0.0
 40
0.0
 40
0.0
 40
1.0
 40
1.0
 40
1.0
 40
1.0
 10
-7.8337000000000003
 20
4.1534000000000004
 30
0.0
 10
-7.8337000000000003
 20
4.1534000000000004
 30
0.0
 10
2.9159000000000002
 20
2.7778
 30
0.0
 10
2.9159000000000002
 20
2.7778
 30
0.0
  0
SPLINE
  5
78
100
AcDbEntity
  8
LC-004-006-MLN-0
370
    20
 62
     0
100
AcDbSpline
210
0.0
220
0.0
230
1.0
 70
     0
 71
     3
 72
     8
 73
     4
 74
     0
 42
0.0000000001
 43
0.0000000001
 40
0.0
 40
0.0
 40
0.0
 40
0.0
 40
1.0
 40
1.0
 40
1.0
 40
1.0
 10
-7.8337000000000003
 20
4.1534000000000004
 30
0.0
 10
-7.8337000000000003
 20
4.1534000000000004
 30
0.0
 10
2.9159000000000002
 20
5.5880000000000001
 30
0.0
 10
2.9159000000000002
 20
5.5880000000000001
 30
0.0
  0
SPLINE
  5
79
100
AcDbEntity
  8
LC-004-006-MLN-0
370
    20
 62
     0
100
AcDbSpline
210
0.0
220
0.0
230
1.0
 70
     0
 71
     3
 72
     8
 73
     4
 74
     0
 42
0.0000000001
 43
0.0000000001
 40
0.0
 40
0.0
 40
0.0
 40
0.0
 40
1.0
 40
1.0
 40
1.0
 40
1.0
 10
-41.635200000000005
 20
4.4874999999999998
 30
0.0
 10
-41.635200000000005
 20
4.4874999999999998
 30
0.0
 10
-39.276900000000005
 20
4.1534000000000004
 30
0.0
 10
-39.276900000000005
 20
4.1534000000000004
 30
0.0
  0
SPLINE
  5
7A
100
AcDbEntity
  8
LC-004-006-MLN-0
370
    20
 62
     0
100
AcDbSpline
210
0.0
220
0.0
230
1.0
 70
     0
 71
     3
 72
     8
 73
     4
 74
     0
 42
0.0000000001
 43
0.0000000001
 40
0.0
 40
0.0
 40
0.0
 40
0.0
 40
1.0
 40
1.0
 40
1.0
 40
1.0
 10
-41.635200000000005
 20
3.8979000000000004
 30
0.0
 10
-41.635200000000005
 20
3.8979000000000004
 30
0.0
 10
-39.276900000000005
 20
4.1534000000000004
 30
0.0
 10
-39.276900000000005
 20
4.1534000000000004
 30
0.0
  0
SPLINE
  5
7B
100
AcDbEntity
  8
LC-004-006-MLN-0
370
    20
 62
     0
100
AcDbSpline
210
0.0
220
0.0
230
1.0
 70
     0
 71
     3
 72
     8
 73
     4
 74
     0
 42
0.0000000001
 43
0.0000000001
 40
0.0
 40
0.0
 40
0.0
 40
0.0
 40
1.0
 40
1.0
 40
1.0
 40
1.0
 10
-41.635200000000005
 20
4.8805000000000005
 30
0.0
 10
-41.635200000000005
 20
4.8805000000000005
 30
0.0
 10
-36.447000000000003
 20
4.1534000000000004
 30
0.0
 10
-36.447000000000003
 20
4.1534000000000004
 30
0.0
  0
SPLINE
  5
7C
100
AcDbEntity
  8
LC-004-006-MLN-0
370
    20
 62
     0
100
AcDbSpline
210
0.0
220
0.0
230
1.0
 70
     0
 71
     3
 72
     8
 73
     4
 74
     0
 42
0.0000000001
 43
0.0000000001
 40
0.0
 40
0.0
 40
0.0
 40
0.0
 40
1.0
 40
1.0
 40
1.0
 40
1.0
 10
-41.635200000000005
 20
3.5049000000000001
 30
0.0
 10
-41.635200000000005
 20
3.5049000000000001
 30
0.0
 10
-36.447000000000003
 20
4.1534000000000004
 30
0.0
 10
-36.447000000000003
 20
4.1534000000000004
 30
0.0
  0
SPLINE
  5
7D
100
AcDbEntity
  8
LC-004-006-MLN-0
370
    20
 62
     0
100
AcDbSpline
210
0.0
220
0.0
230
1.0
 70
     0
 71
     3
 72
     8
 73
     4
 74
     0
 42
0.0000000001
 43
0.0000000001
 40
0.0
 40
0.0
 40
0.0
 40
0.0
 40
1.0
 40
1.0
 40
1.0
 40
1.0
 10
-41.5565
 20
5.1950000000000003
 30
0.0
 10
-41.5565
 20
5.1950000000000003
 30
0.0
 10
-33.636800000000001
 20
4.1534000000000004
 30
0.0
 10
-33.636800000000001
 20
4.1534000000000004
 30
0.0
  0
SPLINE
  5
7E
100
AcDbEntity
  8
LC-004-006-MLN-0
370
    20
 62
     0
100
AcDbSpline
210
0.0
220
0.0
230
1.0
 70
     0
 71
     3
 72
     8
 73
     4
 74
     0
 42
0.0000000001
 43
0.0000000001
 40
0.0
 40
0.0
 40
0.0
 40
0.0
 40
1.0
 40
1.0
 40
1.0
 40
1.0
 10
-41.5565
 20
3.1119000000000003
 30
0.0
 10
-41.5565
 20
3.1119000000000003
 30
0.0
 10
-33.636800000000001
 20
4.1534000000000004
 30
0.0
 10
-33.636800000000001
 20
4.1534000000000004
 30
0.0
  0
SPLINE
  5
7F
100
AcDbEntity
  8
LC-004-006-MLN-0
370
    20
 62
     0
100
AcDbSpline
210
0.0
220
0.0
230
1.0
 70
     0
 71
     3
 72
     8
 73
     4
 74
     0
 42
0.0000000001
 43
0.0000000001
 40
0.0
 40
0.0
 40
0.0
 40
0.0
 40
1.0
 40
1.0
 40
1.0
 40
1.0
 10
-41.5565
 20
2.7778
 30
0.0
 10
-41.5565
 20
2.7778
 30
0.0
 10
-41.5565
 20
5.5880000000000001
 30
0.0
 10
-41.5565
 20
5.5880000000000001
 30
0.0
  0
SPLINE
  5
80
100
AcDbEntity
  8
LC-004-006-MLN-0
370
    20
 62
     0
100
AcDbSpline
210
0.0
220
0.0
230
1.0
 70
     0
 71
     3
 72
     8
 73
     4
 74
     0
 42
0.0000000001
 43
0.0000000001
 40
0.0
 40
0.0
 40
0.0
 40
0.0
 40
1.0
 40
1.0
 40
1.0
 40
1.0
 10
-41.5565
 20
5.5880000000000001
 30
0.0
 10
-41.5565
 20
5.5880000000000001
 30
0.0
 10
-30.826600000000003
 20
4.1534000000000004
 30
0.0
 10
-30.826600000000003
 20
4.1534000000000004
 30
0.0
  0
SPLINE
  5
81
100
AcDbEntity
  8
LC-004-006-MLN-0
370
    20
 62
     0
100
AcDbSpline
210
0.0
220
0.0
230
1.0
 70
     0
 71
     3
 72
     8
 73
     4
 74
     0
 42
0.0000000001
 43
0.0000000001
 40
0.0
 40
0.0
 40
0.0
 40
0.0
 40
1.0
 40
1.0
 40
1.0
 40
1.0
 10
-41.5565
 20
2.7778
 30
0.0
 10
-41.5565
 20
2.7778
 30
0.0
 10
-30.826600000000003
 20
4.1534000000000004
 30
0.0
 10
-30.826600000000003
 20
4.1534000000000004
 30
0.0
  0
SPLINE
  5
82
100
AcDbEntity
  8
LC-004-006-MLN-0
370
    20
 62
     0
100
AcDbSpline
210
0.0
220
0.0
230
1.0
 70
     0
 71
     3
 72
     8
 73
     4
 74
     0
 42
0.0000000001
 43
0.0000000001
 40
0.0
 40
0.0
 40
0.0
 40
0.0
 40
1.0
 40
1.0
 40
1.0
 40
1.0
 10
-7.8337000000000003
 20
-2.3317000000000001
 30
0.0
 10
-7.8337000000000003
 20
-2.3317000000000001
 30
0.0
 10
-7.8337000000000003
 20
21.781200000000002
 30
0.0
 10
-7.8337000000000003
 20
21.781200000000002
 30
0.0
  0
SPLINE
  5
83
100
AcDbEntity
  8
LC-004-006-MLN-0
370
    20
 62
     0
100
AcDbSpline
210
0.0
220
0.0
230
1.0
 70
     0
 71
     3
 72
     8
 73
     4
 74
     0
 42
0.0000000001
 43
0.0000000001
 40
0.0
 40
0.0
 40
0.0
 40
0.0
 40
1.0
 40
1.0
 40
1.0
 40
1.0
 10
-30.826600000000003
 20
-2.3317000000000001
 30
0.0
 10
-30.826600000000003
 20
-2.3317000000000001
 30
0.0
 10
-30.826600000000003
 20
21.977700000000002
 30
0.0
 10
-30.826600000000003
 20
21.977700000000002
 30
0.0
  0
SPLINE
  5
84
100
AcDbEntity
  8
LC-004-006-MLN-0
370
    20
 62
     0
100
AcDbSpline
210
0.0
220
0.0
230
1.0
 70
     0
 71
     3
 72
     8
 73
     4
 74
     0
 42
0.0000000001
 43
0.0000000001
 40
0.0
 40
0.0
 40
0.0
 40
0.0
 40
1.0
 40
1.0
 40
1.0
 40
1.0
 10
-11.764100000000001
 20
43.319800000000001
 30
0.0
 10
-11.764100000000001
 20
43.319800000000001
 30
0.0
 10
-9.4059000000000008
 20
43.064300000000003
 30
0.0
 10
-9.4059000000000008
 20
43.064300000000003
 30
0.0
  0
SPLINE
  5
85
100
AcDbEntity
  8
LC-004-006-MLN-0
370
    20
 62
     0
100
AcDbSpline
210
0.0
220
0.0
230
1.0
 70
     0
 71
     3
 72
     8
 73
     4
 74
     0
 42
0.0000000001
 43
0.0000000001
 40
0.0
 40
0.0
 40
0.0
 40
0.0
 40
1.0
 40
1.0
 40
1.0
 40
1.0
 10
-11.764100000000001
 20
42.730200000000004
 30
0.0
 10
-11.764100000000001
 20
42.730200000000004
 30
0.0
 10
-9.4059000000000008
 20
43.064300000000003
 30
0.0
 10
-9.4059000000000008
 20
43.064300000000003
 30
0.0
  0
SPLINE
  5
86
100
AcDbEntity
  8
LC-004-006-MLN-0
370
    20
 62
     0
100
AcDbSpline
210
0.0
220
0.0
230
1.0
 70
     0
 71
     3
 72
     8
 73
     4
 74
     0
 42
0.0000000001
 43
0.0000000001
 40
0.0
 40
0.0
 40
0.0
 40
0.0
 40
1.0
 40
1.0
 40
1.0
 40
1.0
 10
-11.685500000000001
 20
43.712800000000001
 30
0.0
 10
-11.685500000000001
 20
43.712800000000001
 30
0.0
 10
-6.5760000000000005
 20
43.064300000000003
 30
0.0
 10
-6.5760000000000005
 20
43.064300000000003
 30
0.0
  0
SPLINE
  5
87
100
AcDbEntity
  8
LC-004-006-MLN-0
370
    20
 62
     0
100
AcDbSpline
210
0.0
220
0.0
230
1.0
 70
     0
 71
     3
 72
     8
 73
     4
 74
     0
 42
0.0000000001
 43
0.0000000001
 40
0.0
 40
0.0
 40
0.0
 40
0.0
 40
1.0
 40
1.0
 40
1.0
 40
1.0
 10
-11.685500000000001
 20
42.337200000000003
 30
0.0
 10
-11.685500000000001
 20
42.337200000000003
 30
0.0
 10
-6.5760000000000005
 20
43.064300000000003
 30
0.0
 10
-6.5760000000000005
 20
43.064300000000003
 30
0.0
  0
SPLINE
  5
88
100
AcDbEntity
  8
LC-004-006-MLN-0
370
    20
 62
     0
100
AcDbSpline
210
0.0
220
0.0
230
1.0
 70
     0
 71
     3
 72
     8
 73
     4
 74
     0
 42
0.0000000001
 43
0.0000000001
 40
0.0
 40
0.0
 40
0.0
 40
0.0
 40
1.0
 40
1.0
 40
1.0
 40
1.0
 10
-11.685500000000001
 20
44.105900000000005
 30
0.0
 10
-11.685500000000001
 20
44.105900000000005
 30
0.0
 10
-3.7658
 20
43.064300000000003
 30
0.0
 10
-3.7658
 20
43.064300000000003
 30
0.0
  0
SPLINE
  5
89
100
AcDbEntity
  8
LC-004-006-MLN-0
370
    20
 62
     0
100
AcDbSpline
210
0.0
220
0.0
230
1.0
 70
     0
 71
     3
 72
     8
 73
     4
 74
     0
 42
0.0000000001
 43
0.0000000001
 40
0.0
 40
0.0
 40
0.0
 40
0.0
 40
1.0
 40
1.0
 40
1.0
 40
1.0
 10
-11.685500000000001
 20
42.0227
 30
0.0
 10
-11.685500000000001
 20
42.0227
 30
0.0
 10
-3.7658
 20
43.064300000000003
 30
0.0
 10
-3.7658
 20
43.064300000000003
 30
0.0
  0
SPLINE
  5
8A
100
AcDbEntity
  8
LC-004-006-MLN-0
370
    20
 62
     0
100
AcDbSpline
210
0.0
220
0.0
230
1.0
 70
     0
 71
     3
 72
     8
 73
     4
 74
     0
 42
0.0000000001
 43
0.0000000001
 40
0.0
 40
0.0
 40
0.0
 40
0.0
 40
1.0
 40
1.0
 40
1.0
 40
1.0
 10
-11.685500000000001
 20
41.6297
 30
0.0
 10
-11.685500000000001
 20
41.6297
 30
0.0
 10
-11.685500000000001
 20
44.439900000000002
 30
0.0
 10
-11.685500000000001
 20
44.439900000000002
 30
0.0
  0
SPLINE
  5
8B
100
AcDbEntity
  8
LC-004-006-MLN-0
370
    20
 62
     0
100
AcDbSpline
210
0.0
220
0.0
230
1.0
 70
     0
 71
     3
 72
     8
 73
     4
 74
     0
 42
0.0000000001
 43
0.0000000001
 40
0.0
 40
0.0
 40
0.0
 40
0.0
 40
1.0
 40
1.0
 40
1.0
 40
1.0
 10
-11.685500000000001
 20
44.439900000000002
 30
0.0
 10
-11.685500000000001
 20
44.439900000000002
 30
0.0
 10
-0.9555
 20
43.064300000000003
 30
0.0
 10
-0.9555
 20
43.064300000000003
 30
0.0
  0
SPLINE
  5
8C
100
AcDbEntity
  8
LC-004-006-MLN-0
370
    20
 62
     0
100
AcDbSpline
210
0.0
220
0.0
230
1.0
 70
     0
 71
     3
 72
     8
 73
     4
 74
     0
 42
0.0000000001
 43
0.0000000001
 40
0.0
 40
0.0
 40
0.0
 40
0.0
 40
1.0
 40
1.0
 40
1.0
 40
1.0
 10
-11.685500000000001
 20
41.6297
 30
0.0
 10
-11.685500000000001
 20
41.6297
 30
0.0
 10
-0.9555
 20
43.064300000000003
 30
0.0
 10
-0.9555
 20
43.064300000000003
 30
0.0
  0
SPLINE
  5
8D
100
AcDbEntity
  8
LC-004-006-MLN-0
370
    20
 62
     0
100
AcDbSpline
210
0.0
220
0.0
230
1.0
 70
     0
 71
     3
 72
     8
 73
     4
 74
     0
 42
0.0000000001
 43
0.0000000001
 40
0.0
 40
0.0
 40
0.0
 40
0.0
 40
1.0
 40
1.0
 40
1.0
 40
1.0
 10
-22.376200000000001
 20
43.064300000000003
 30
0.0
 10
-22.376200000000001
 20
43.064300000000003
 30
0.0
 10
-20.018000000000001
 20
42.730200000000004
 30
0.0
 10
-20.018000000000001
 20
42.730200000000004
 30
0.0
  0
SPLINE
  5
8E
100
AcDbEntity
  8
LC-004-006-MLN-0
370
    20
 62
     0
100
AcDbSpline
210
0.0
220
0.0
230
1.0
 70
     0
 71
     3
 72
     8
 73
     4
 74
     0
 42
0.0000000001
 43
0.0000000001
 40
0.0
 40
0.0
 40
0.0
 40
0.0
 40
1.0
 40
1.0
 40
1.0
 40
1.0
 10
-22.376200000000001
 20
43.064300000000003
 30
0.0
 10
-22.376200000000001
 20
43.064300000000003
 30
0.0
 10
-20.018000000000001
 20
43.319800000000001
 30
0.0
 10
-20.018000000000001
 20
43.319800000000001
 30
0.0
  0
SPLINE
  5
8F
100
AcDbEntity
  8
LC-004-006-MLN-0
370
    20
 62
     0
100
AcDbSpline
210
0.0
220
0.0
230
1.0
 70
     0
 71
     3
 72
     8
 73
     4
 74
     0
 42
0.0000000001
 43
0.0000000001
 40
0.0
 40
0.0
 40
0.0
 40
0.0
 40
1.0
 40
1.0
 40
1.0
 40
1.0
 10
-25.186400000000003
 20
43.064300000000003
 30
0.0
 10
-25.186400000000003
 20
43.064300000000003
 30
0.0
 10
-20.018000000000001
 20
42.337200000000003
 30
0.0
 10
-20.018000000000001
 20
42.337200000000003
 30
0.0
  0
SPLINE
  5
90
100
AcDbEntity
  8
LC-004-006-MLN-0
370
    20
 62
     0
100
AcDbSpline
210
0.0
220
0.0
230
1.0
 70
     0
 71
     3
 72
     8
 73
     4
 74
     0
 42
0.0000000001
 43
0.0000000001
 40
0.0
 40
0.0
 40
0.0
 40
0.0
 40
1.0
 40
1.0
 40
1.0
 40
1.0
 10
-25.186400000000003
 20
43.064300000000003
 30
0.0
 10
-25.186400000000003
 20
43.064300000000003
 30
0.0
 10
-20.018000000000001
 20
43.712800000000001
 30
0.0
 10
-20.018000000000001
 20
43.712800000000001
 30
0.0
  0
SPLINE
  5
91
100
AcDbEntity
  8
LC-004-006-MLN-0
370
    20
 62
     0
100
AcDbSpline
210
0.0
220
0.0
230
1.0
 70
     0
 71
     3
 72
     8
 73
     4
 74
     0
 42
0.0000000001
 43
0.0000000001
 40
0.0
 40
0.0
 40
0.0
 40
0.0
 40
1.0
 40
1.0
 40
1.0
 40
1.0
 10
-27.996700000000001
 20
43.064300000000003
 30
0.0
 10
-27.996700000000001
 20
43.064300000000003
 30
0.0
 10
-20.076900000000002
 20
42.0227
 30
0.0
 10
-20.076900000000002
 20
42.0227
 30
0.0
  0
SPLINE
  5
92
100
AcDbEntity
  8
LC-004-006-MLN-0
370
    20
 62
     0
100
AcDbSpline
210
0.0
220
0.0
230
1.0
 70
     0
 71
     3
 72
     8
 73
     4
 74
     0
 42
0.0000000001
 43
0.0000000001
 40
0.0
 40
0.0
 40
0.0
 40
0.0
 40
1.0
 40
1.0
 40
1.0
 40
1.0
 10
-27.996700000000001
 20
43.064300000000003
 30
0.0
 10
-27.996700000000001
 20
43.064300000000003
 30
0.0
 10
-20.076900000000002
 20
44.105900000000005
 30
0.0
 10
-20.076900000000002
 20
44.105900000000005
 30
0.0
  0
SPLINE
  5
93
100
AcDbEntity
  8
LC-004-006-MLN-0
370
    20
 62
     0
100
AcDbSpline
210
0.0
220
0.0
230
1.0
 70
     0
 71
     3
 72
     8
 73
     4
 74
     0
 42
0.0000000001
 43
0.0000000001
 40
0.0
 40
0.0
 40
0.0
 40
0.0
 40
1.0
 40
1.0
 40
1.0
 40
1.0
 10
-20.076900000000002
 20
44.439900000000002
 30
0.0
 10
-20.076900000000002
 20
44.439900000000002
 30
0.0
 10
-20.076900000000002
 20
41.6297
 30
0.0
 10
-20.076900000000002
 20
41.6297
 30
0.0
  0
SPLINE
  5
94
100
AcDbEntity
  8
LC-004-006-MLN-0
370
    20
 62
     0
100
AcDbSpline
210
0.0
220
0.0
230
1.0
 70
     0
 71
     3
 72
     8
 73
     4
 74
     0
 42
0.0000000001
 43
0.0000000001
 40
0.0
 40
0.0
 40
0.0
 40
0.0
 40
1.0
 40
1.0
 40
1.0
 40
1.0
 10
-30.826600000000003
 20
43.064300000000003
 30
0.0
 10
-30.826600000000003
 20
43.064300000000003
 30
0.0
 10
-20.076900000000002
 20
41.6297
 30
0.0
 10
-20.076900000000002
 20
41.6297
 30
0.0
  0
SPLINE
  5
95
100
AcDbEntity
  8
LC-004-006-MLN-0
370
    20
 62
     0
100
AcDbSpline
210
0.0
220
0.0
230
1.0
 70
     0
 71
     3
 72
     8
 73
     4
 74
     0
 42
0.0000000001
 43
0.0000000001
 40
0.0
 40
0.0
 40
0.0
 40
0.0
 40
1.0
 40
1.0
 40
1.0
 40
1.0
 10
-30.826600000000003
 20
43.064300000000003
 30
0.0
 10
-30.826600000000003
 20
43.064300000000003
 30
0.0
 10
-20.076900000000002
 20
44.439900000000002
 30
0.0
 10
-20.076900000000002
 20
44.439900000000002
 30
0.0
  0
SPLINE
  5
96
100
AcDbEntity
  8
LC-004-006-MLN-0
370
    20
 62
     0
100
AcDbSpline
210
0.0
220
0.0
230
1.0
 70
     0
 71
     3
 72
     8
 73
     4
 74
     0
 42
0.0000000001
 43
0.0000000001
 40
0.0
 40
0.0
 40
0.0
 40
0.0
 40
1.0
 40
1.0
 40
1.0
 40
1.0
 10
-30.826600000000003
 20
43.064300000000003
 30
0.0
 10
-30.826600000000003
 20
43.064300000000003
 30
0.0
 10
-0.9555
 20
43.064300000000003
 30
0.0
 10
-0.9555
 20
43.064300000000003
 30
0.0
  0
SPLINE
  5
97
100
AcDbEntity
  8
LC-004-006-MLN-0
370
    20
 62
     0
100
AcDbSpline
210
0.0
220
0.0
230
1.0
 70
     0
 71
     3
 72
     8
 73
     4
 74
     0
 42
0.0000000001
 43
0.0000000001
 40
0.0
 40
0.0
 40
0.0
 40
0.0
 40
1.0
 40
1.0
 40
1.0
 40
1.0
 10
-0.9555
 20
49.549400000000006
 30
0.0
 10
-0.9555
 20
49.549400000000006
 30
0.0
 10
-0.9555
 20
35.341100000000004
 30
0.0
 10
-0.9555
 20
35.341100000000004
 30
0.0
  0
SPLINE
  5
98
100
AcDbEntity
  8
LC-004-006-MLN-0
370
    20
 62
     0
100
AcDbSpline
210
0.0
220
0.0
230
1.0
 70
     0
 71
     3
 72
     8
 73
     4
 74
     0
 42
0.0000000001
 43
0.0000000001
 40
0.0
 40
0.0
 40
0.0
 40
0.0
 40
1.0
 40
1.0
 40
1.0
 40
1.0
 10
-30.826600000000003
 20
49.549400000000006
 30
0.0
 10
-30.826600000000003
 20
49.549400000000006
 30
0.0
 10
-30.826600000000003
 20
33.572400000000002
 30
0.0
 10
-30.826600000000003
 20
33.572400000000002
 30
0.0
  0
SPLINE
  5
99
100
AcDbEntity
  8
LC-004-006-MLN-0
370
    40
 62
     0
100
AcDbSpline
210
0.0
220
0.0
230
1.0
 70
     0
 71
     3
 72
     8
 73
     4
 74
     0
 42
0.0000000001
 43
0.0000000001
 40
0.0
 40
0.0
 40
0.0
 40
0.0
 40
1.0
 40
1.0
 40
1.0
 40
1.0
 10
-10.8994
 20
31.332100000000001
 30
0.0
 10
-10.8994
 20
31.332100000000001
 30
0.0
 10
-10.8994
 20
32.982800000000005
 30
0.0
 10
-10.8994
 20
32.982800000000005
 30
0.0
  0
SPLINE
  5
9A
100
AcDbEntity
  8
LC-004-006-MLN-0
370
    40
 62
     0
100
AcDbSpline
210
0.0
220
0.0
230
1.0
 70
     0
 71
     3
 72
     8
 73
     4
 74
     0
 42
0.0000000001
 43
0.0000000001
 40
0.0
 40
0.0
 40
0.0
 40
0.0
 40
1.0
 40
1.0
 40
1.0
 40
1.0
 10
-9.7202999999999999
 20
32.982800000000005
 30
0.0
 10
-9.7202999999999999
 20
32.982800000000005
 30
0.0
 10
-8.9342000000000006
 20
32.196800000000003
 30
0.0
 10
-8.9342000000000006
 20
32.196800000000003
 30
0.0
  0
SPLINE
  5
9B
100
AcDbEntity
  8
LC-004-006-MLN-0
370
    40
 62
     0
100
AcDbSpline
210
0.0
220
0.0
230
1.0
 70
     0
 71
     3
 72
     8
 73
     4
 74
     0
 42
0.0000000001
 43
0.0000000001
 40
0.0
 40
0.0
 40
0.0
 40
0.0
 40
1.0
 40
1.0
 40
1.0
 40
1.0
 10
-7.8337000000000003
 20
32.196800000000003
 30
0.0
 10
-7.8337000000000003
 20
32.196800000000003
 30
0.0
 10
-7.8337000000000003
 20
32.982800000000005
 30
0.0
 10
-7.8337000000000003
 20
32.982800000000005
 30
0.0
  0
SPLINE
  5
9C
100
AcDbEntity
  8
LC-004-006-MLN-0
370
    40
 62
     0
100
AcDbSpline
210
0.0
220
0.0
230
1.0
 70
     0
 71
     3
 72
     8
 73
     4
 74
     0
 42
0.0000000001
 43
0.0000000001
 40
0.0
 40
0.0
 40
0.0
 40
0.0
 40
1.0
 40
1.0
 40
1.0
 40
1.0
 10
-1.4665000000000001
 20
32.0002
 30
0.0
 10
-1.4665000000000001
 20
32.0002
 30
0.0
 10
-1.4665000000000001
 20
32.982800000000005
 30
0.0
 10
-1.4665000000000001
 20
32.982800000000005
 30
0.0
  0
SPLINE
  5
9D
100
AcDbEntity
  8
LC-004-006-MLN-0
370
    40
 62
     0
100
AcDbSpline
210
0.0
220
0.0
230
1.0
 70
     0
 71
     3
 72
     8
 73
     4
 74
     0
 42
0.0000000001
 43
0.0000000001
 40
0.0
 40
0.0
 40
0.0
 40
0.0
 40
1.0
 40
1.0
 40
1.0
 40
1.0
 10
-0.9555
 20
32.982800000000005
 30
0.0
 10
-0.9555
 20
32.982800000000005
 30
0.0
 10
-0.9555
 20
31.332100000000001
 30
0.0
 10
-0.9555
 20
31.332100000000001
 30
0.0
  0
SPLINE
  5
9E
100
AcDbEntity
  8
LC-004-006-MLN-0
370
    40
 62
     0
100
AcDbSpline
210
0.0
220
0.0
230
1.0
 70
     0
 71
     3
 72
     8
 73
     4
 74
     0
 42
0.0000000001
 43
0.0000000001
 40
0.0
 40
0.0
 40
0.0
 40
0.0
 40
1.0
 40
1.0
 40
1.0
 40
1.0
 10
-9.7202999999999999
 20
22.567299999999999
 30
0.0
 10
-9.7202999999999999
 20
22.567299999999999
 30
0.0
 10
-8.9342000000000006
 20
23.353400000000001
 30
0.0
 10
-8.9342000000000006
 20
23.353400000000001
 30
0.0
  0
SPLINE
  5
9F
100
AcDbEntity
  8
LC-004-006-MLN-0
100
AcDbSpline
210
0.0
220
0.0
230
1.0
 70
     1
 71
     3
 72
    76
 73
    72
 74
     0
 42
0.0000000001
 43
0.0000000001
 40
0.0
 40
0.0
 40
0.0
 40
0.0
 40
0.0555555555555556
 40
0.0555555555555556
 40
0.0555555555555556
 40
0.0555555555555556
 40
0.1111111111111111
 40
0.1111111111111111
 40
0.1111111111111111
 40
0.1111111111111111
 40
0.1666666666666667
 40
0.1666666666666667
 40
0.1666666666666667
 40
0.1666666666666667
 40
0.2222222222222222
 40
0.2222222222222222
 40
0.2222222222222222
 40
0.2222222222222222
 40
0.2777777777777778
 40
0.2777777777777778
 40
0.2777777777777778
 40
0.2777777777777778
 40
0.3333333333333334
 40
0.3333333333333334
 40
0.3333333333333334
 40
0.3333333333333334
 40
0.388888888888889
 40
0.388888888888889
 40
0.388888888888889
 40
0.388888888888889
 40
0.4444444444444445
 40
0.4444444444444445
 40
0.4444444444444445
 40
0.4444444444444445
 40
0.5000000000000001
 40
0.5000000000000001
 40
0.5000000000000001
 40
0.5000000000000001
 40
0.5555555555555557
 40
0.5555555555555557
 40
0.5555555555555557
 40
0.5555555555555557
 40
0.6111111111111113
 40
0.6111111111111113
 40
0.6111111111111113
 40
0.6111111111111113
 40
0.6666666666666669
 40
0.6666666666666669
 40
0.6666666666666669
 40
0.6666666666666669
 40
0.7222222222222224
 40
0.7222222222222224
 40
0.7222222222222224
 40
0.7222222222222224
 40
0.777777777777778
 40
0.777777777777778
 40
0.777777777777778
 40
0.777777777777778
 40
0.8333333333333336
 40
0.8333333333333336
 40
0.8333333333333336
 40
0.8333333333333336
 40
0.8888888888888892
 40
0.8888888888888892
 40
0.8888888888888892
 40
0.8888888888888892
 40
0.9444444444444448
 40
0.9444444444444448
 40
0.9444444444444448
 40
0.9444444444444448
 40
1.0
 40
1.0
 40
1.0
 40
1.0
 10
-21.481200000000001
 20
48.767400000000002
 30
0.0
 10
-21.481200000000001
 20
48.767400000000002
 30
0.0
 10
-20.553000000000001
 20
48.860600000000005
 30
0.0
 10
-20.553000000000001
 20
48.860600000000005
 30
0.0
 10
-20.553000000000001
 20
48.860600000000005
 30
0.0
 10
-20.489599999999999
 20
48.4133
 30
0.0
 10
-20.3629
 20
48.0946
 30
0.0
 10
-20.1709
 20
47.904499999999999
 30
0.0
 10
-20.1709
 20
47.904499999999999
 30
0.0
 10
-19.9771
 20
47.716200000000001
 30
0.0
 10
-19.747800000000002
 20
47.621200000000002
 30
0.0
 10
-19.481300000000001
 20
47.621200000000002
 30
0.0
 10
-19.481300000000001
 20
47.621200000000002
 30
0.0
 10
-19.102900000000002
 20
47.621200000000002
 30
0.0
 10
-18.752500000000001
 20
47.785200000000003
 30
0.0
 10
-18.4282
 20
48.113199999999999
 30
0.0
 10
-18.4282
 20
48.113199999999999
 30
0.0
 10
-17.9511
 20
48.594100000000005
 30
0.0
 10
-17.6007
 20
49.283700000000003
 30
0.0
 10
-17.3751
 20
50.182100000000005
 30
0.0
 10
-17.3751
 20
50.182100000000005
 30
0.0
 10
-17.705000000000002
 20
49.934200000000004
 30
0.0
 10
-17.999500000000001
 20
49.759
 30
0.0
 10
-18.256700000000002
 20
49.652799999999999
 30
0.0
 10
-18.256700000000002
 20
49.652799999999999
 30
0.0
 10
-18.5121
 20
49.546500000000002
 30
0.0
 10
-18.776800000000001
 20
49.494300000000003
 30
0.0
 10
-19.045200000000001
 20
49.494300000000003
 30
0.0
 10
-19.045200000000001
 20
49.494300000000003
 30
0.0
 10
-19.5335
 20
49.494300000000003
 30
0.0
 10
-19.9696
 20
49.658300000000004
 30
0.0
 10
-20.355399999999999
 20
49.986400000000003
 30
0.0
 10
-20.355399999999999
 20
49.986400000000003
 30
0.0
 10
-20.866099999999999
 20
50.411300000000004
 30
0.0
 10
-21.119600000000002
 20
51.0227
 30
0.0
 10
-21.119600000000002
 20
51.820399999999999
 30
0.0
 10
-21.119600000000002
 20
51.820399999999999
 30
0.0
 10
-21.119600000000002
 20
52.722500000000004
 30
0.0
 10
-20.825100000000003
 20
53.496000000000002
 30
0.0
 10
-20.2362
 20
54.140900000000002
 30
0.0
 10
-20.2362
 20
54.140900000000002
 30
0.0
 10
-19.729200000000002
 20
54.694500000000005
 30
0.0
 10
-19.108499999999999
 20
54.972200000000001
 30
0.0
 10
-18.374200000000002
 20
54.972200000000001
 30
0.0
 10
-18.374200000000002
 20
54.972200000000001
 30
0.0
 10
-17.710599999999999
 20
54.972200000000001
 30
0.0
 10
-17.160800000000002
 20
54.726200000000006
 30
0.0
 10
-16.724700000000002
 20
54.236000000000004
 30
0.0
 10
-16.724700000000002
 20
54.236000000000004
 30
0.0
 10
-16.288499999999999
 20
53.747600000000006
 30
0.0
 10
-16.0686
 20
53.054300000000005
 30
0.0
 10
-16.0686
 20
52.159600000000005
 30
0.0
 10
-16.0686
 20
52.159600000000005
 30
0.0
 10
-16.0686
 20
51.289200000000001
 30
0.0
 10
-16.214000000000002
 20
50.43
 30
0.0
 10
-16.506600000000002
 20
49.581900000000005
 30
0.0
 10
-16.506600000000002
 20
49.581900000000005
 30
0.0
 10
-16.851400000000002
 20
48.584800000000001
 30
0.0
 10
-17.319200000000002
 20
47.848600000000005
 30
0.0
 10
-17.9101
 20
47.375100000000003
 30
0.0
 10
-17.9101
 20
47.375100000000003
 30
0.0
 10
-18.389099999999999
 20
46.9893
 30
0.0
 10
-18.9315
 20
46.7973
 30
0.0
 10
-19.531600000000001
 20
46.7973
 30
0.0
 10
-19.531600000000001
 20
46.7973
 30
0.0
 10
-20.0852
 20
46.7973
 30
0.0
 10
-20.536200000000001
 20
46.968800000000002
 30
0.0
 10
-20.888500000000001
 20
47.313600000000001
 30
0.0
 10
-20.888500000000001
 20
47.313600000000001
 30
0.0
 10
-21.238900000000001
 20
47.656600000000005
 30
0.0
 10
-21.436500000000002
 20
48.141200000000005
 30
0.0
 10
-21.481200000000001
 20
48.767400000000002
 30
0.0
  0
SPLINE
  5
A0
100
AcDbEntity
  8
LC-004-006-MLN-0
100
AcDbSpline
210
0.0
220
0.0
230
1.0
 70
     1
 71
     3
 72
    52
 73
    48
 74
     0
 42
0.0000000001
 43
0.0000000001
 40
0.0
 40
0.0
 40
0.0
 40
0.0
 40
0.0833333333333333
 40
0.0833333333333333
 40
0.0833333333333333
 40
0.0833333333333333
 40
0.1666666666666667
 40
0.1666666666666667
 40
0.1666666666666667
 40
0.1666666666666667
 40
0.25
 40
0.25
 40
0.25
 40
0.25
 40
0.3333333333333333
 40
0.3333333333333333
 40
0.3333333333333333
 40
0.3333333333333333
 40
0.4166666666666666
 40
0.4166666666666666
 40
0.4166666666666666
 40
0.4166666666666666
 40
0.4999999999999999
 40
0.4999999999999999
 40
0.4999999999999999
 40
0.4999999999999999
 40
0.5833333333333333
 40
0.5833333333333333
 40
0.5833333333333333
 40
0.5833333333333333
 40
0.6666666666666666
 40
0.6666666666666666
 40
0.6666666666666666
 40
0.6666666666666666
 40
0.75
 40
0.75
 40
0.75
 40
0.75
 40
0.8333333333333334
 40
0.8333333333333334
 40
0.8333333333333334
 40
0.8333333333333334
 40
0.9166666666666667
 40
0.9166666666666667
 40
0.9166666666666667
 40
0.9166666666666667
 40
1.0
 40
1.0
 40
1.0
 40
1.0
 10
-20.165300000000002
 20
51.936
 30
0.0
 10
-20.165300000000002
 20
51.432700000000004
 30
0.0
 10
-20.031100000000002
 20
51.032000000000004
 30
0.0
 10
-19.762700000000002
 20
50.733800000000002
 30
0.0
 10
-19.762700000000002
 20
50.733800000000002
 30
0.0
 10
-19.496200000000002
 20
50.435600000000001
 30
0.0
 10
-19.177500000000002
 20
50.286500000000004
 30
0.0
 10
-18.810300000000002
 20
50.286500000000004
 30
0.0
 10
-18.810300000000002
 20
50.286500000000004
 30
0.0
 10
-18.5382
 20
50.286500000000004
 30
0.0
 10
-18.266100000000002
 20
50.3797
 30
0.0
 10
-17.997700000000002
 20
50.5642
 30
0.0
 10
-17.997700000000002
 20
50.5642
 30
0.0
 10
-17.727399999999999
 20
50.750600000000006
 30
0.0
 10
-17.496300000000002
 20
51.028300000000002
 30
0.0
 10
-17.302500000000002
 20
51.397300000000001
 30
0.0
 10
-17.302500000000002
 20
51.397300000000001
 30
0.0
 10
-17.110500000000002
 20
51.766400000000004
 30
0.0
 10
-17.0136
 20
52.146599999999999
 30
0.0
 10
-17.0136
 20
52.536100000000005
 30
0.0
 10
-17.0136
 20
52.536100000000005
 30
0.0
 10
-17.0136
 20
52.841799999999999
 30
0.0
 10
-17.076900000000002
 20
53.125100000000003
 30
0.0
 10
-17.205500000000001
 20
53.387900000000002
 30
0.0
 10
-17.205500000000001
 20
53.387900000000002
 30
0.0
 10
-17.3323
 20
53.650700000000001
 30
0.0
 10
-17.505600000000001
 20
53.846400000000003
 30
0.0
 10
-17.727399999999999
 20
53.980600000000003
 30
0.0
 10
-17.727399999999999
 20
53.980600000000003
 30
0.0
 10
-17.947300000000002
 20
54.113
 30
0.0
 10
-18.1691
 20
54.18
 30
0.0
 10
-18.3947
 20
54.18
 30
0.0
 10
-18.3947
 20
54.18
 30
0.0
 10
-18.614599999999999
 20
54.18
 30
0.0
 10
-18.828900000000001
 20
54.120400000000004
 30
0.0
 10
-19.0396
 20
54.004800000000003
 30
0.0
 10
-19.0396
 20
54.004800000000003
 30
0.0
 10
-19.2502
 20
53.8874
 30
0.0
 10
-19.445900000000002
 20
53.717800000000004
 30
0.0
 10
-19.6267
 20
53.4923
 30
0.0
 10
-19.6267
 20
53.4923
 30
0.0
 10
-19.807500000000001
 20
53.264900000000004
 30
0.0
 10
-19.941700000000001
 20
53.005800000000001
 30
0.0
 10
-20.031100000000002
 20
52.713200000000001
 30
0.0
 10
-20.031100000000002
 20
52.713200000000001
 30
0.0
 10
-20.1206
 20
52.4206
 30
0.0
 10
-20.165300000000002
 20
52.161500000000004
 30
0.0
 10
-20.165300000000002
 20
51.936
 30
0.0
  0
SPLINE
  5
A1
100
AcDbEntity
  8
LC-004-006-MLN-0
100
AcDbSpline
210
0.0
220
0.0
230
1.0
 70
     1
 71
     3
 72
    52
 73
    48
 74
     0
 42
0.0000000001
 43
0.0000000001
 40
0.0
 40
0.0
 40
0.0
 40
0.0
 40
0.0833333333333333
 40
0.0833333333333333
 40
0.0833333333333333
 40
0.0833333333333333
 40
0.1666666666666667
 40
0.1666666666666667
 40
0.1666666666666667
 40
0.1666666666666667
 40
0.25
 40
0.25
 40
0.25
 40
0.25
 40
0.3333333333333333
 40
0.3333333333333333
 40
0.3333333333333333
 40
0.3333333333333333
 40
0.4166666666666666
 40
0.4166666666666666
 40
0.4166666666666666
 40
0.4166666666666666
 40
0.4999999999999999
 40
0.4999999999999999
 40
0.4999999999999999
 40
0.4999999999999999
 40
0.5833333333333333
 40
0.5833333333333333
 40
0.5833333333333333
 40
0.5833333333333333
 40
0.6666666666666666
 40
0.6666666666666666
 40
0.6666666666666666
 40
0.6666666666666666
 40
0.75
 40
0.75
 40
0.75
 40
0.75
 40
0.8333333333333334
 40
0.8333333333333334
 40
0.8333333333333334
 40
0.8333333333333334
 40
0.9166666666666667
 40
0.9166666666666667
 40
0.9166666666666667
 40
0.9166666666666667
 40
1.0
 40
1.0
 40
1.0
 40
1.0
 10
-15.2224
 20
49.559600000000003
 30
0.0
 10
-15.2224
 20
50.2361
 30
0.0
 10
-15.121700000000001
 20
50.925800000000002
 30
0.0
 10
-14.920400000000001
 20
51.624700000000004
 30
0.0
 10
-14.920400000000001
 20
51.624700000000004
 30
0.0
 10
-14.7173
 20
52.323700000000002
 30
0.0
 10
-14.493600000000001
 20
52.880900000000004
 30
0.0
 10
-14.245700000000001
 20
53.3003
 30
0.0
 10
-14.245700000000001
 20
53.3003
 30
0.0
 10
-13.9978
 20
53.719700000000003
 30
0.0
 10
-13.740600000000001
 20
54.045900000000003
 30
0.0
 10
-13.475900000000001
 20
54.282600000000002
 30
0.0
 10
-13.475900000000001
 20
54.282600000000002
 30
0.0
 10
-13.2094
 20
54.519300000000001
 30
0.0
 10
-12.948500000000001
 20
54.694500000000005
 30
0.0
 10
-12.6913
 20
54.804400000000001
 30
0.0
 10
-12.6913
 20
54.804400000000001
 30
0.0
 10
-12.4359
 20
54.9163
 30
0.0
 10
-12.150700000000001
 20
54.972200000000001
 30
0.0
 10
-11.8376
 20
54.972200000000001
 30
0.0
 10
-11.8376
 20
54.972200000000001
 30
0.0
 10
-11.2263
 20
54.972200000000001
 30
0.0
 10
-10.7156
 20
54.742900000000006
 30
0.0
 10
-10.3055
 20
54.288200000000003
 30
0.0
 10
-10.3055
 20
54.288200000000003
 30
0.0
 10
-9.8955000000000002
 20
53.833400000000005
 30
0.0
 10
-9.6905000000000001
 20
53.177300000000002
 30
0.0
 10
-9.6905000000000001
 20
52.318100000000001
 30
0.0
 10
-9.6905000000000001
 20
52.318100000000001
 30
0.0
 10
-9.6905000000000001
 20
51.432700000000004
 30
0.0
 10
-9.8339999999999996
 20
50.556699999999999
 30
0.0
 10
-10.1173
 20
49.691900000000004
 30
0.0
 10
-10.1173
 20
49.691900000000004
 30
0.0
 10
-10.4528
 20
48.664900000000003
 30
0.0
 10
-10.918700000000001
 20
47.895099999999999
 30
0.0
 10
-11.5152
 20
47.380700000000004
 30
0.0
 10
-11.5152
 20
47.380700000000004
 30
0.0
 10
-11.973700000000001
 20
46.991199999999999
 30
0.0
 10
-12.495600000000001
 20
46.7973
 30
0.0
 10
-13.082700000000001
 20
46.7973
 30
0.0
 10
-13.082700000000001
 20
46.7973
 30
0.0
 10
-13.6828
 20
46.7973
 30
0.0
 10
-14.1898
 20
47.032200000000003
 30
0.0
 10
-14.6036
 20
47.503700000000002
 30
0.0
 10
-14.6036
 20
47.503700000000002
 30
0.0
 10
-15.015500000000001
 20
47.975300000000004
 30
0.0
 10
-15.2224
 20
48.661200000000001
 30
0.0
 10
-15.2224
 20
49.559600000000003
 30
0.0
  0
SPLINE
  5
A2
100
AcDbEntity
  8
LC-004-006-MLN-0
100
AcDbSpline
210
0.0
220
0.0
230
1.0
 70
     1
 71
     3
 72
    48
 73
    44
 74
     0
 42
0.0000000001
 43
0.0000000001
 40
0.0
 40
0.0
 40
0.0
 40
0.0
 40
0.0909090909090909
 40
0.0909090909090909
 40
0.0909090909090909
 40
0.0909090909090909
 40
0.1818181818181818
 40
0.1818181818181818
 40
0.1818181818181818
 40
0.1818181818181818
 40
0.2727272727272727
 40
0.2727272727272727
 40
0.2727272727272727
 40
0.2727272727272727
 40
0.3636363636363637
 40
0.3636363636363637
 40
0.3636363636363637
 40
0.3636363636363637
 40
0.4545454545454546
 40
0.4545454545454546
 40
0.4545454545454546
 40
0.4545454545454546
 40
0.5454545454545455
 40
0.5454545454545455
 40
0.5454545454545455
 40
0.5454545454545455
 40
0.6363636363636365
 40
0.6363636363636365
 40
0.6363636363636365
 40
0.6363636363636365
 40
0.7272727272727274
 40
0.7272727272727274
 40
0.7272727272727274
 40
0.7272727272727274
 40
0.8181818181818183
 40
0.8181818181818183
 40
0.8181818181818183
 40
0.8181818181818183
 40
0.9090909090909093
 40
0.9090909090909093
 40
0.9090909090909093
 40
0.9090909090909093
 40
1.0
 40
1.0
 40
1.0
 40
1.0
 10
-14.266200000000001
 20
49.307900000000004
 30
0.0
 10
-14.266200000000001
 20
48.817800000000005
 30
0.0
 10
-14.186100000000001
 20
48.433800000000005
 30
0.0
 10
-14.022
 20
48.156100000000002
 30
0.0
 10
-14.022
 20
48.156100000000002
 30
0.0
 10
-13.8002
 20
47.774000000000001
 30
0.0
 10
-13.4703
 20
47.5839
 30
0.0
 10
-13.032300000000001
 20
47.5839
 30
0.0
 10
-13.032300000000001
 20
47.5839
 30
0.0
 10
-12.650300000000001
 20
47.5839
 30
0.0
 10
-12.303600000000001
 20
47.755400000000002
 30
0.0
 10
-11.990400000000001
 20
48.102000000000004
 30
0.0
 10
-11.990400000000001
 20
48.102000000000004
 30
0.0
 10
-11.539400000000001
 20
48.590400000000002
 30
0.0
 10
-11.1983
 20
49.304200000000002
 30
0.0
 10
-10.9709
 20
50.2455
 30
0.0
 10
-10.9709
 20
50.2455
 30
0.0
 10
-10.743500000000001
 20
51.186700000000002
 30
0.0
 10
-10.629800000000001
 20
51.954599999999999
 30
0.0
 10
-10.629800000000001
 20
52.552900000000001
 30
0.0
 10
-10.629800000000001
 20
52.552900000000001
 30
0.0
 10
-10.629800000000001
 20
53.127000000000002
 30
0.0
 10
-10.739800000000001
 20
53.5426
 30
0.0
 10
-10.961600000000001
 20
53.798000000000002
 30
0.0
 10
-10.961600000000001
 20
53.798000000000002
 30
0.0
 10
-11.1815
 20
54.051400000000001
 30
0.0
 10
-11.4704
 20
54.18
 30
0.0
 10
-11.832000000000001
 20
54.18
 30
0.0
 10
-11.832000000000001
 20
54.18
 30
0.0
 10
-12.093
 20
54.18
 30
0.0
 10
-12.339
 20
54.113
 30
0.0
 10
-12.5664
 20
53.976900000000001
 30
0.0
 10
-12.5664
 20
53.976900000000001
 30
0.0
 10
-12.793800000000001
 20
53.842700000000001
 30
0.0
 10
-13.011800000000001
 20
53.611600000000003
 30
0.0
 10
-13.2187
 20
53.283500000000004
 30
0.0
 10
-13.2187
 20
53.283500000000004
 30
0.0
 10
-13.513200000000001
 20
52.821300000000001
 30
0.0
 10
-13.7704
 20
52.129800000000003
 30
0.0
 10
-13.9885
 20
51.209099999999999
 30
0.0
 10
-13.9885
 20
51.209099999999999
 30
0.0
 10
-14.174900000000001
 20
50.422499999999999
 30
0.0
 10
-14.266200000000001
 20
49.788800000000002
 30
0.0
 10
-14.266200000000001
 20
49.307900000000004
 30
0.0
  0
SPLINE
  5
A3
100
AcDbEntity
  8
LC-004-006-MLN-0
100
AcDbSpline
210
0.0
220
0.0
230
1.0
 70
     1
 71
     3
 72
    44
 73
    40
 74
     0
 42
0.0000000001
 43
0.0000000001
 40
0.0
 40
0.0
 40
0.0
 40
0.0
 40
0.1
 40
0.1
 40
0.1
 40
0.1
 40
0.2
 40
0.2
 40
0.2
 40
0.2
 40
0.3
 40
0.3
 40
0.3
 40
0.3
 40
0.4
 40
0.4
 40
0.4
 40
0.4
 40
0.5
 40
0.5
 40
0.5
 40
0.5
 40
0.6
 40
0.6
 40
0.6
 40
0.6
 40
0.7
 40
0.7
 40
0.7
 40
0.7
 40
0.7999999999999999
 40
0.7999999999999999
 40
0.7999999999999999
 40
0.7999999999999999
 40
0.8999999999999999
 40
0.8999999999999999
 40
0.8999999999999999
 40
0.8999999999999999
 40
1.0
 40
1.0
 40
1.0
 40
1.0
 10
-23.782
 20
5.6869000000000005
 30
0.0
 10
-23.694300000000002
 20
6.2256
 30
0.0
 10
-23.508000000000003
 20
6.8742000000000001
 30
0.0
 10
-23.224700000000002
 20
7.6309000000000005
 30
0.0
 10
-23.224700000000002
 20
7.6309000000000005
 30
0.0
 10
-22.885400000000001
 20
8.5442
 30
0.0
 10
-22.441800000000001
 20
9.4519000000000002
 30
0.0
 10
-21.891999999999999
 20
10.3521
 30
0.0
 10
-21.891999999999999
 20
10.3521
 30
0.0
 10
-21.342200000000002
 20
11.254200000000001
 30
0.0
 10
-20.730800000000002
 20
12.027700000000001
 30
0.0
 10
-20.058
 20
12.676300000000001
 30
0.0
 10
-20.058
 20
12.676300000000001
 30
0.0
 10
-20.058
 20
12.676300000000001
 30
0.0
 10
-24.048500000000001
 20
12.676300000000001
 30
0.0
 10
-24.048500000000001
 20
12.676300000000001
 30
0.0
 10
-24.048500000000001
 20
12.676300000000001
 30
0.0
 10
-24.048500000000001
 20
12.676300000000001
 30
0.0
 10
-23.8584
 20
13.5822
 30
0.0
 10
-23.8584
 20
13.5822
 30
0.0
 10
-23.8584
 20
13.5822
 30
0.0
 10
-23.8584
 20
13.5822
 30
0.0
 10
-18.747700000000002
 20
13.5822
 30
0.0
 10
-18.747700000000002
 20
13.5822
 30
0.0
 10
-18.747700000000002
 20
13.5822
 30
0.0
 10
-18.747700000000002
 20
13.5822
 30
0.0
 10
-18.932200000000002
 20
12.676300000000001
 30
0.0
 10
-18.932200000000002
 20
12.676300000000001
 30
0.0
 10
-18.932200000000002
 20
12.676300000000001
 30
0.0
 10
-19.7989
 20
11.915900000000001
 30
0.0
 10
-20.555600000000002
 20
10.9336
 30
0.0
 10
-21.2042
 20
9.7332999999999998
 30
0.0
 10
-21.2042
 20
9.7332999999999998
 30
0.0
 10
-21.9572
 20
8.3466000000000005
 30
0.0
 10
-22.473500000000001
 20
6.9972000000000003
 30
0.0
 10
-22.749400000000001
 20
5.6869000000000005
 30
0.0
 10
-22.749400000000001
 20
5.6869000000000005
 30
0.0
 10
-22.749400000000001
 20
5.6869000000000005
 30
0.0
 10
-23.782
 20
5.6869000000000005
 30
0.0
 10
-23.782
 20
5.6869000000000005
 30
0.0
  0
SPLINE
  5
A4
100
AcDbEntity
  8
LC-004-006-MLN-0
100
AcDbSpline
210
0.0
220
0.0
230
1.0
 70
     1
 71
     3
 72
    44
 73
    40
 74
     0
 42
0.0000000001
 43
0.0000000001
 40
0.0
 40
0.0
 40
0.0
 40
0.0
 40
0.1
 40
0.1
 40
0.1
 40
0.1
 40
0.2
 40
0.2
 40
0.2
 40
0.2
 40
0.3
 40
0.3
 40
0.3
 40
0.3
 40
0.4
 40
0.4
 40
0.4
 40
0.4
 40
0.5
 40
0.5
 40
0.5
 40
0.5
 40
0.6
 40
0.6
 40
0.6
 40
0.6
 40
0.7
 40
0.7
 40
0.7
 40
0.7
 40
0.7999999999999999
 40
0.7999999999999999
 40
0.7999999999999999
 40
0.7999999999999999
 40
0.8999999999999999
 40
0.8999999999999999
 40
0.8999999999999999
 40
0.8999999999999999
 40
1.0
 40
1.0
 40
1.0
 40
1.0
 10
-17.5623
 20
5.6869000000000005
 30
0.0
 10
-17.474600000000002
 20
6.2256
 30
0.0
 10
-17.2883
 20
6.8742000000000001
 30
0.0
 10
-17.005000000000003
 20
7.6309000000000005
 30
0.0
 10
-17.005000000000003
 20
7.6309000000000005
 30
0.0
 10
-16.665700000000001
 20
8.5442
 30
0.0
 10
-16.222100000000001
 20
9.4519000000000002
 30
0.0
 10
-15.6723
 20
10.3521
 30
0.0
 10
-15.6723
 20
10.3521
 30
0.0
 10
-15.1225
 20
11.254200000000001
 30
0.0
 10
-14.511100000000001
 20
12.027700000000001
 30
0.0
 10
-13.8383
 20
12.676300000000001
 30
0.0
 10
-13.8383
 20
12.676300000000001
 30
0.0
 10
-13.8383
 20
12.676300000000001
 30
0.0
 10
-17.828800000000001
 20
12.676300000000001
 30
0.0
 10
-17.828800000000001
 20
12.676300000000001
 30
0.0
 10
-17.828800000000001
 20
12.676300000000001
 30
0.0
 10
-17.828800000000001
 20
12.676300000000001
 30
0.0
 10
-17.6387
 20
13.5822
 30
0.0
 10
-17.6387
 20
13.5822
 30
0.0
 10
-17.6387
 20
13.5822
 30
0.0
 10
-17.6387
 20
13.5822
 30
0.0
 10
-12.528
 20
13.5822
 30
0.0
 10
-12.528
 20
13.5822
 30
0.0
 10
-12.528
 20
13.5822
 30
0.0
 10
-12.528
 20
13.5822
 30
0.0
 10
-12.7125
 20
12.676300000000001
 30
0.0
 10
-12.7125
 20
12.676300000000001
 30
0.0
 10
-12.7125
 20
12.676300000000001
 30
0.0
 10
-13.5792
 20
11.915900000000001
 30
0.0
 10
-14.335900000000001
 20
10.9336
 30
0.0
 10
-14.984500000000001
 20
9.7332999999999998
 30
0.0
 10
-14.984500000000001
 20
9.7332999999999998
 30
0.0
 10
-15.737500000000001
 20
8.3466000000000005
 30
0.0
 10
-16.253800000000002
 20
6.9972000000000003
 30
0.0
 10
-16.529700000000002
 20
5.6869000000000005
 30
0.0
 10
-16.529700000000002
 20
5.6869000000000005
 30
0.0
 10
-16.529700000000002
 20
5.6869000000000005
 30
0.0
 10
-17.5623
 20
5.6869000000000005
 30
0.0
 10
-17.5623
 20
5.6869000000000005
 30
0.0
  0
SPLINE
  5
A5
100
AcDbEntity
  8
LC-004-006-MLN-0
100
AcDbSpline
210
0.0
220
0.0
230
1.0
 70
     1
 71
     3
 72
    40
 73
    36
 74
     0
 42
0.0000000001
 43
0.0000000001
 40
0.0
 40
0.0
 40
0.0
 40
0.0
 40
0.1111111111111111
 40
0.1111111111111111
 40
0.1111111111111111
 40
0.1111111111111111
 40
0.2222222222222222
 40
0.2222222222222222
 40
0.2222222222222222
 40
0.2222222222222222
 40
0.3333333333333333
 40
0.3333333333333333
 40
0.3333333333333333
 40
0.3333333333333333
 40
0.4444444444444444
 40
0.4444444444444444
 40
0.4444444444444444
 40
0.4444444444444444
 40
0.5555555555555556
 40
0.5555555555555556
 40
0.5555555555555556
 40
0.5555555555555556
 40
0.6666666666666667
 40
0.6666666666666667
 40
0.6666666666666667
 40
0.6666666666666667
 40
0.7777777777777779
 40
0.7777777777777779
 40
0.7777777777777779
 40
0.7777777777777779
 40
0.8888888888888891
 40
0.8888888888888891
 40
0.8888888888888891
 40
0.8888888888888891
 40
1.0
 40
1.0
 40
1.0
 40
1.0
 10
-49.989699999999999
 20
0.7406
 30
0.0
 10
-49.989699999999999
 20
0.7406
 30
0.0
 10
-56.034200000000006
 20
2.008
 30
0.0
 10
-56.034200000000006
 20
2.008
 30
0.0
 10
-56.034200000000006
 20
2.008
 30
0.0
 10
-55.605499999999999
 20
1.4619
 30
0.0
 10
-55.2607
 20
0.6940000000000001
 30
0.0
 10
-55.001600000000003
 20
-0.2957
 30
0.0
 10
-55.001600000000003
 20
-0.2957
 30
0.0
 10
-55.001600000000003
 20
-0.2957
 30
0.0
 10
-55.898099999999999
 20
-0.1112
 30
0.0
 10
-55.898099999999999
 20
-0.1112
 30
0.0
 10
-55.898099999999999
 20
-0.1112
 30
0.0
 10
-56.093800000000002
 20
0.3809
 30
0.0
 10
-56.351000000000006
 20
0.8655000000000001
 30
0.0
 10
-56.667900000000003
 20
1.3445
 30
0.0
 10
-56.667900000000003
 20
1.3445
 30
0.0
 10
-56.984700000000004
 20
1.8235000000000001
 30
0.0
 10
-57.260600000000004
 20
2.1832000000000003
 30
0.0
 10
-57.497300000000003
 20
2.4237000000000002
 30
0.0
 10
-57.497300000000003
 20
2.4237000000000002
 30
0.0
 10
-57.642700000000005
 20
2.569
 30
0.0
 10
-57.819700000000005
 20
2.7070000000000003
 30
0.0
 10
-58.026600000000002
 20
2.8374000000000001
 30
0.0
 10
-58.026600000000002
 20
2.8374000000000001
 30
0.0
 10
-58.026600000000002
 20
2.8374000000000001
 30
0.0
 10
-58.026600000000002
 20
3.4115000000000002
 30
0.0
 10
-58.026600000000002
 20
3.4115000000000002
 30
0.0
 10
-58.026600000000002
 20
3.4115000000000002
 30
0.0
 10
-58.026600000000002
 20
3.4115000000000002
 30
0.0
 10
-49.989699999999999
 20
1.7359
 30
0.0
 10
-49.989699999999999
 20
1.7359
 30
0.0
 10
-49.989699999999999
 20
1.7359
 30
0.0
 10
-49.989699999999999
 20
1.7359
 30
0.0
 10
-49.989699999999999
 20
0.7406
 30
0.0
 10
-49.989699999999999
 20
0.7406
 30
0.0
  0
SPLINE
  5
A6
100
AcDbEntity
  8
LC-004-006-MLN-0
100
AcDbSpline
210
0.0
220
0.0
230
1.0
 70
     1
 71
     3
 72
    36
 73
    32
 74
     0
 42
0.0000000001
 43
0.0000000001
 40
0.0
 40
0.0
 40
0.0
 40
0.0
 40
0.125
 40
0.125
 40
0.125
 40
0.125
 40
0.25
 40
0.25
 40
0.25
 40
0.25
 40
0.375
 40
0.375
 40
0.375
 40
0.375
 40
0.5
 40
0.5
 40
0.5
 40
0.5
 40
0.625
 40
0.625
 40
0.625
 40
0.625
 40
0.75
 40
0.75
 40
0.75
 40
0.75
 40
0.875
 40
0.875
 40
0.875
 40
0.875
 40
1.0
 40
1.0
 40
1.0
 40
1.0
 10
-56.8431
 20
5.7768000000000006
 30
0.0
 10
-56.8431
 20
5.7768000000000006
 30
0.0
 10
-57.961400000000005
 20
6.0116000000000005
 30
0.0
 10
-57.961400000000005
 20
6.0116000000000005
 30
0.0
 10
-57.961400000000005
 20
6.0116000000000005
 30
0.0
 10
-57.961400000000005
 20
6.0116000000000005
 30
0.0
 10
-57.961400000000005
 20
7.1355000000000004
 30
0.0
 10
-57.961400000000005
 20
7.1355000000000004
 30
0.0
 10
-57.961400000000005
 20
7.1355000000000004
 30
0.0
 10
-57.961400000000005
 20
7.1355000000000004
 30
0.0
 10
-56.979100000000003
 20
6.9342000000000006
 30
0.0
 10
-56.979100000000003
 20
6.9342000000000006
 30
0.0
 10
-56.979100000000003
 20
6.9342000000000006
 30
0.0
 10
-56.393900000000002
 20
6.8093000000000004
 30
0.0
 10
-55.965200000000003
 20
6.6173999999999999
 30
0.0
 10
-55.693100000000001
 20
6.3583000000000007
 30
0.0
 10
-55.693100000000001
 20
6.3583000000000007
 30
0.0
 10
-55.422800000000002
 20
6.0973000000000006
 30
0.0
 10
-55.264400000000002
 20
5.7898000000000005
 30
0.0
 10
-55.221500000000006
 20
5.4375
 30
0.0
 10
-55.221500000000006
 20
5.4375
 30
0.0
 10
-55.221500000000006
 20
5.4375
 30
0.0
 10
-55.652100000000004
 20
5.5307000000000004
 30
0.0
 10
-55.652100000000004
 20
5.5307000000000004
 30
0.0
 10
-55.652100000000004
 20
5.5307000000000004
 30
0.0
 10
-55.773200000000003
 20
5.9594000000000005
 30
0.0
 10
-56.168400000000005
 20
6.2464000000000004
 30
0.0
 10
-56.8431
 20
6.3881000000000006
 30
0.0
 10
-56.8431
 20
6.3881000000000006
 30
0.0
 10
-56.8431
 20
6.3881000000000006
 30
0.0
 10
-56.8431
 20
5.7768000000000006
 30
0.0
 10
-56.8431
 20
5.7768000000000006
 30
0.0
  0
SPLINE
  5
A7
100
AcDbEntity
  8
LC-004-006-MLN-0
100
AcDbSpline
210
0.0
220
0.0
230
1.0
 70
     1
 71
     3
 72
    36
 73
    32
 74
     0
 42
0.0000000001
 43
0.0000000001
 40
0.0
 40
0.0
 40
0.0
 40
0.0
 40
0.125
 40
0.125
 40
0.125
 40
0.125
 40
0.25
 40
0.25
 40
0.25
 40
0.25
 40
0.375
 40
0.375
 40
0.375
 40
0.375
 40
0.5
 40
0.5
 40
0.5
 40
0.5
 40
0.625
 40
0.625
 40
0.625
 40
0.625
 40
0.75
 40
0.75
 40
0.75
 40
0.75
 40
0.875
 40
0.875
 40
0.875
 40
0.875
 40
1.0
 40
1.0
 40
1.0
 40
1.0
 10
-56.8431
 20
7.5772000000000004
 30
0.0
 10
-56.8431
 20
7.5772000000000004
 30
0.0
 10
-57.961400000000005
 20
7.8121
 30
0.0
 10
-57.961400000000005
 20
7.8121
 30
0.0
 10
-57.961400000000005
 20
7.8121
 30
0.0
 10
-57.961400000000005
 20
7.8121
 30
0.0
 10
-57.961400000000005
 20
8.9378000000000011
 30
0.0
 10
-57.961400000000005
 20
8.9378000000000011
 30
0.0
 10
-57.961400000000005
 20
8.9378000000000011
 30
0.0
 10
-57.961400000000005
 20
8.9378000000000011
 30
0.0
 10
-56.979100000000003
 20
8.7309999999999999
 30
0.0
 10
-56.979100000000003
 20
8.7309999999999999
 30
0.0
 10
-56.979100000000003
 20
8.7309999999999999
 30
0.0
 10
-56.393900000000002
 20
8.6097999999999999
 30
0.0
 10
-55.965200000000003
 20
8.4197000000000006
 30
0.0
 10
-55.693100000000001
 20
8.1588000000000012
 30
0.0
 10
-55.693100000000001
 20
8.1588000000000012
 30
0.0
 10
-55.422800000000002
 20
7.8997000000000002
 30
0.0
 10
-55.264400000000002
 20
7.5921000000000003
 30
0.0
 10
-55.221500000000006
 20
7.2399000000000004
 30
0.0
 10
-55.221500000000006
 20
7.2399000000000004
 30
0.0
 10
-55.221500000000006
 20
7.2399000000000004
 30
0.0
 10
-55.652100000000004
 20
7.3275000000000006
 30
0.0
 10
-55.652100000000004
 20
7.3275000000000006
 30
0.0
 10
-55.652100000000004
 20
7.3275000000000006
 30
0.0
 10
-55.773200000000003
 20
7.7562000000000006
 30
0.0
 10
-56.168400000000005
 20
8.0432000000000006
 30
0.0
 10
-56.8431
 20
8.1904000000000003
 30
0.0
 10
-56.8431
 20
8.1904000000000003
 30
0.0
 10
-56.8431
 20
8.1904000000000003
 30
0.0
 10
-56.8431
 20
7.5772000000000004
 30
0.0
 10
-56.8431
 20
7.5772000000000004
 30
0.0
  0
ENDSEC
  0
SECTION
  2
OBJECTS
  0
DICTIONARY
  5
19
100
AcDbDictionary
280
     0
281
     1
  3
ACAD_GROUP
350
1A
  3
ACAD_MLINESTYLE
350
1B
  3
ACAD_LAYOUT
350
1E
  3
ACAD_PLOTSETTINGS
350
22
  3
ACAD_PLOTSTYLENAME
350
1F
  3
ACAD_WIPEOUT_VARS
350
23
  0
DICTIONARY
  5
1A
102
{ACAD_REACTORS
330
19
102
}
100
AcDbDictionary
280
     0
281
     1
  0
DICTIONARY
  5
1B
102
{ACAD_REACTORS
330
19
102
}
100
AcDbDictionary
280
     0
281
     1
  3
Standard
350
1C
  0
MLINESTYLE
  5
1C
102
{ACAD_REACTORS
330
1B
102
}
100
AcDbMlineStyle
  2
Standard
 70
     0
  3

 62
     0
 51
90.0
 52
90.0
 71
     2
 49
0.5
 62
   256
  6
BYLAYER
 49
-0.5
 62
   256
  6
BYLAYER
  0
ACDBDICTIONARYWDFLT
  5
1F
102
{ACAD_REACTORS
330
19
102
}
100
AcDbDictionary
281
     1
  3
Normal
350
1D
100
AcDbDictionaryWithDefault
340
1D
  0
ACDBPLACEHOLDER
  5
1D
102
{ACAD_REACTORS
330
1F
102
}
  0
LAYOUT
  5
20
102
{ACAD_REACTORS
330
1E
102
}
100
AcDbPlotSettings
  1

  2

  4

  6

 40
0.0
 41
0.0
 42
0.0
 43
0.0
 44
0.0
 45
0.0
 46
0.0
 47
0.0
 48
0.0
 49
0.0
140
0.0
141
0.0
142
1.0
143
1.0
 70
  1024
 72
     0
 73
     0
 74
     0
  7

 75
     0
147
1.0
148
0.0
149
0.0
100
AcDbLayout
  1
Model
 70
     0
 71
     0
 10
0.0
 20
0.0
 11
0.0
 21
0.0
 12
0.0
 22
0.0
 32
0.0
 14
0.0
 24
0.0
 34
0.0
 15
0.0
 25
0.0
 35
0.0
146
0.0
 13
0.0
 23
0.0
 33
0.0
 16
0.0
 26
0.0
 36
0.0
 17
0.0
 27
0.0
 37
0.0
 76
     0
330
A
331
0
345
0
346
0
  0
LAYOUT
  5
21
102
{ACAD_REACTORS
330
1E
102
}
100
AcDbPlotSettings
  1

  2

  4

  6

 40
0.0
 41
0.0
 42
0.0
 43
0.0
 44
0.0
 45
0.0
 46
0.0
 47
0.0
 48
0.0
 49
0.0
140
0.0
141
0.0
142
1.0
143
1.0
 70
     0
 72
     0
 73
     0
 74
     0
  7

 75
     0
147
1.0
148
0.0
149
0.0
100
AcDbLayout
  1
Layout1
 70
     0
 71
     0
 10
0.0
 20
0.0
 11
0.0
 21
0.0
 12
0.0
 22
0.0
 32
0.0
 14
0.0
 24
0.0
 34
0.0
 15
0.0
 25
0.0
 35
0.0
146
0.0
 13
0.0
 23
0.0
 33
0.0
 16
0.0
 26
0.0
 36
0.0
 17
0.0
 27
0.0
 37
0.0
 76
     0
330
B
331
0
345
0
346
0
  0
DICTIONARY
  5
1E
102
{ACAD_REACTORS
330
19
102
}
100
AcDbDictionary
280
     0
281
     1
  3
Layout1
350
21
  3
Model
350
20
  0
DICTIONARY
  5
22
102
{ACAD_REACTORS
330
19
102
}
100
AcDbDictionary
280
     0
281
     1
  0
WIPEOUTVARIABLES
  5
23
100
AcDbWipeoutVariables
 70
     1
  0
ENDSEC
  0
EOF
