  0
SECTION
  2
HEADER
  9
$ACADVER
  1
AC1015
  9
$ACADMAINTVER
 70
     6
  9
$DWGCODEPAGE
  3
DOS850
  9
$INSBASE
 10
0.0
 20
0.0
 30
0.0
  9
$EXTMIN
 10
-37.8368
 20
10.8615
 30
1.000000E+20
  9
$EXTMAX
 10
18.5125
 20
84.1396
 30
-1.000000E+20
  9
$LIMMIN
 10
0.0
 20
0.0
  9
$LIMMAX
 10
0.0
 20
0.0
  9
$ORTHOMODE
 70
     0
  9
$REGENMODE
 70
     1
  9
$FILLMODE
 70
     1
  9
$QTEXTMODE
 70
     0
  9
$MIRRTEXT
 70
     1
  9
$LTSCALE
 40
1.0
  9
$ATTMODE
 70
     1
  9
$TEXTSIZE
 40
0.2
  9
$TRACEWID
 40
0.05
  9
$TEXTSTYLE
  7
Standard
  9
$CLAYER
  8
0
  9
$CELTYPE
  6
Continuous
  9
$CECOLOR
 62
   256
  9
$CELTSCALE
 40
1.0
  9
$DISPSILH
 70
     0
  9
$DIMSCALE
 40
1.0
  9
$DIMASZ
 40
0.18
  9
$DIMEXO
 40
0.0625
  9
$DIMDLI
 40
0.38
  9
$DIMRND
 40
0.0
  9
$DIMDLE
 40
0.0
  9
$DIMEXE
 40
0.18
  9
$DIMTP
 40
0.0
  9
$DIMTM
 40
0.0
  9
$DIMTXT
 40
0.18
  9
$DIMCEN
 40
0.09
  9
$DIMTSZ
 40
0.0
  9
$DIMTOL
 70
     0
  9
$DIMLIM
 70
     0
  9
$DIMTIH
 70
     1
  9
$DIMTOH
 70
     1
  9
$DIMSE1
 70
     0
  9
$DIMSE2
 70
     0
  9
$DIMTAD
 70
     0
  9
$DIMZIN
 70
     0
  9
$DIMBLK
  1

  9
$DIMASO
 70
     1
  9
$DIMSHO
 70
     1
  9
$DIMPOST
  1

  9
$DIMAPOST
  1

  9
$DIMALT
 70
     0
  9
$DIMALTD
 70
     2
  9
$DIMALTF
 40
25.4
  9
$DIMLFAC
 40
1.0
  9
$DIMTOFL
 70
     0
  9
$DIMTVP
 40
0.0
  9
$DIMTIX
 70
     0
  9
$DIMSOXD
 70
     0
  9
$DIMSAH
 70
     0
  9
$DIMBLK1
  1

  9
$DIMBLK2
  1

  9
$DIMSTYLE
  2
Standard
  9
$DIMCLRD
 70
     0
  9
$DIMCLRE
 70
     0
  9
$DIMCLRT
 70
     0
  9
$DIMTFAC
 40
1.0
  9
$DIMGAP
 40
0.09
  9
$DIMJUST
 70
     0
  9
$DIMSD1
 70
     0
  9
$DIMSD2
 70
     0
  9
$DIMTOLJ
 70
     1
  9
$DIMTZIN
 70
     0
  9
$DIMALTZ
 70
     0
  9
$DIMALTTZ
 70
     0
  9
$DIMUPT
 70
     0
  9
$DIMDEC
 70
     4
  9
$DIMTDEC
 70
     4
  9
$DIMALTU
 70
     2
  9
$DIMALTTD
 70
     2
  9
$DIMTXSTY
  7
Standard
  9
$DIMAUNIT
 70
     0
  9
$DIMADEC
 70
     0
  9
$DIMALTRND
 40
0.0
  9
$DIMAZIN
 70
     0
  9
$DIMDSEP
 70
     0
  9
$DIMATFIT
 70
     3
  9
$DIMFRAC
 70
     0
  9
$DIMLDRBLK
  1

  9
$DIMLUNIT
 70
     2
  9
$DIMLWD
 70
     0
  9
$DIMLWE
 70
     0
  9
$DIMTMOVE
 70
     0
  9
$LUNITS
 70
     2
  9
$LUPREC
 70
     4
  9
$SKETCHINC
 40
0.1
  9
$FILLETRAD
 40
0.0
  9
$AUNITS
 70
     0
  9
$AUPREC
 70
     0
  9
$MENU
  1
acad
  9
$ELEVATION
 40
0.0
  9
$PELEVATION
 40
0.0
  9
$THICKNESS
 40
0.0
  9
$LIMCHECK
 70
     0
  9
$CHAMFERA
 40
0.0
  9
$CHAMFERB
 40
0.0
  9
$CHAMFERC
 40
0.0
  9
$CHAMFERD
 40
0.0
  9
$SKPOLY
 70
     0
  9
$TDCREATE
 40
0.000000000
  9
$TDUCREATE
 40
0.000000000
  9
$TDUPDATE
 40
0.000000000
  9
$TDUUPDATE
 40
0.000000000
  9
$TDINDWG
 40
0.0000000000
  9
$TDUSRTIMER
 40
0.0000000000
  9
$USRTIMER
 70
     1
  9
$ANGBASE
 50
0.0
  9
$ANGDIR
 70
     0
  9
$PDMODE
 70
     0
  9
$PDSIZE
 40
0.0
  9
$PLINEWID
 40
0.0
  9
$SPLFRAME
 70
     0
  9
$SPLINETYPE
 70
     6
  9
$SPLINESEGS
 70
     8
  9
$HANDSEED
  5
99
  9
$SURFTAB1
 70
     6
  9
$SURFTAB2
 70
     6
  9
$SURFTYPE
 70
     6
  9
$SURFU
 70
     6
  9
$SURFV
 70
     6
  9
$UCSBASE
  2

  9
$UCSNAME
  2

  9
$UCSORG
 10
0.0
 20
0.0
 30
0.0
  9
$UCSXDIR
 10
1.0
 20
0.0
 30
0.0
  9
$UCSYDIR
 10
0.0
 20
1.0
 30
0.0
  9
$UCSORTHOREF
  2

  9
$UCSORTHOVIEW
 70
     0
  9
$UCSORGTOP
 10
0.0
 20
0.0
 30
0.0
  9
$UCSORGBOTTOM
 10
0.0
 20
0.0
 30
0.0
  9
$UCSORGLEFT
 10
0.0
 20
0.0
 30
0.0
  9
$UCSORGRIGHT
 10
0.0
 20
0.0
 30
0.0
  9
$UCSORGFRONT
 10
0.0
 20
0.0
 30
0.0
  9
$UCSORGBACK
 10
0.0
 20
0.0
 30
0.0
  9
$PUCSBASE
  2

  9
$PUCSNAME
  2

  9
$PUCSORG
 10
0.0
 20
0.0
 30
0.0
  9
$PUCSXDIR
 10
1.0
 20
0.0
 30
0.0
  9
$PUCSYDIR
 10
0.0
 20
1.0
 30
0.0
  9
$PUCSORTHOREF
  2

  9
$PUCSORTHOVIEW
 70
     0
  9
$PUCSORGTOP
 10
0.0
 20
0.0
 30
0.0
  9
$PUCSORGBOTTOM
 10
0.0
 20
0.0
 30
0.0
  9
$PUCSORGLEFT
 10
0.0
 20
0.0
 30
0.0
  9
$PUCSORGRIGHT
 10
0.0
 20
0.0
 30
0.0
  9
$PUCSORGFRONT
 10
0.0
 20
0.0
 30
0.0
  9
$PUCSORGBACK
 10
0.0
 20
0.0
 30
0.0
  9
$USERI1
 70
     0
  9
$USERI2
 70
     0
  9
$USERI3
 70
     0
  9
$USERI4
 70
     0
  9
$USERI5
 70
     0
  9
$USERR1
 40
0.0
  9
$USERR2
 40
0.0
  9
$USERR3
 40
0.0
  9
$USERR4
 40
0.0
  9
$USERR5
 40
0.0
  9
$WORLDVIEW
 70
     1
  9
$SHADEDGE
 70
     3
  9
$SHADEDIF
 70
    70
  9
$TILEMODE
 70
     1
  9
$MAXACTVP
 70
    16
  9
$PINSBASE
 10
0.0
 20
0.0
 30
0.0
  9
$PLIMCHECK
 70
     0
  9
$PEXTMIN
 10
1.000000E+20
 20
1.000000E+20
 30
1.000000E+20
  9
$PEXTMAX
 10
-1.000000E+20
 20
-1.000000E+20
 30
-1.000000E+20
  9
$PLIMMIN
 10
0.0
 20
0.0
  9
$PLIMMAX
 10
12.0
 20
9.0
  9
$UNITMODE
 70
     0
  9
$VISRETAIN
 70
     0
  9
$PLINEGEN
 70
     1
  9
$PSLTSCALE
 70
     0
  9
$TREEDEPTH
 70
  3020
  9
$CMLSTYLE
  2
Standard
  9
$CMLJUST
 70
     0
  9
$CMLSCALE
 40
1.0
  9
$PROXYGRAPHICS
 70
     0
  9
$MEASUREMENT
 70
     0
  9
$CELWEIGHT
370
     0
  9
$ENDCAPS
280
     0
  9
$JOINSTYLE
280
     0
  9
$LWDISPLAY
290
     0
  9
$INSUNITS
 70
     4
  9
$HYPERLINKBASE
  1

  9
$XEDIT
290
     1
  9
$CEPSNTYPE
380
     0
  9
$PSTYLEMODE
290
     1
  9
$FINGERPRINTGUID
  2

  9
$VERSIONGUID
  2

  9
$EXTNAMES
290
     1
  9
$PSVPSCALE
 40
0.0
  0
ENDSEC
  0
SECTION
  2
CLASSES
  0
CLASS
  1
LWPOLYLINE
  2
AcDbPolyline
  3
AutoCAD 2000
 90
    32768
280
     0
281
     1
  0
CLASS
  1
IMAGE
  2
AcDbRasterImage
  3
ISM
 90
    32895
280
     0
281
     1
  0
CLASS
  1
OLE2FRAME
  2
AcDbOle2Frame
  3
AutoCAD 2000
 90
    32768
280
     0
281
     1
  0
CLASS
  1
HATCH
  2
AcDbHatch
  3
AutoCAD 2000
 90
    32768
280
     0
281
     1
  0
CLASS
  1
DICTIONARYVAR
  2
AcDbDictionaryVar
  3
AutoCAD 2000
 90
    32768
280
     0
281
     0
  0
CLASS
  1
RASTERVARIABLES
  2
AcDbRasterVariables
  3
ISM
 90
    32768
280
     0
281
     0
  0
CLASS
  1
IMAGEDEF
  2
AcDbRasterImageDef
  3
ISM
 90
    32768
280
     0
281
     0
  0
CLASS
  1
IMAGEDEF_REACTOR
  2
AcDbRasterImageDefReactor
  3
ISM
 90
    32769
280
     0
281
     0
  0
CLASS
  1
IDBUFFER
  2
AcDbIdBuffer
  3
AutoCAD 2000
 90
    32768
280
     0
281
     0
  0
CLASS
  1
SPATIAL_FILTER
  2
AcDbSpatialFilter
  3
AutoCAD 2000
 90
    32768
280
     0
281
     0
  0
CLASS
  1
XRECORD
  2
AcDbXrecord
  3
AutoCAD 2000
 90
    32768
280
     0
281
     0
  0
CLASS
  1
SORTENTSTABLE
  2
AcDbSortentsTable
  3
AutoCAD 2000
 90
    32768
280
     0
281
     0
  0
CLASS
  1
LAYER_INDEX
  2
AcDbLayerIndex
  3
AutoCAD 2000
 90
    32768
280
     0
281
     0
  0
CLASS
  1
SPATIAL_INDEX
  2
AcDbSpatialIndex
  3
AutoCAD 2000
 90
    32768
280
     0
281
     0
  0
CLASS
  1
OBJECT_PTR
  2
CAseDLPNTableRecord
  3
"ASE-LPNTableRecord"
 90
    32769
280
     0
281
     0
  0
CLASS
  1
LAYOUT
  2
AcDbLayout
  3
AutoCAD 2000
 90
        0
280
     0
281
     0
  0
CLASS
  1
PLOTSETTINGS
  2
AcDbPlotSettings
  3
AutoCAD 2000
 90
    32768
280
     0
281
     0
  0
CLASS
  1
ACDBDICTIONARYWDFLT
  2
AcDbDictionaryWithDefault
  3
AutoCAD 2000
 90
        0
280
     0
281
     0
  0
CLASS
  1
ACDBPLACEHOLDER
  2
AcDbPlaceHolder
  3
AutoCAD 2000
 90
        0
280
     0
281
     0
  0
CLASS
  1
VBA_PROJECT
  2
AcDbVbaProject
  3
acadvba
 90
    32768
280
     0
281
     0
  0
CLASS
  1
WIPEOUT
  2
AcDbWipeout
  3
WipeOut|AutoCAD Express Tool|expresstools@autodesk.com
 90
    32895
280
     0
281
     1
  0
CLASS
  1
WIPEOUTVARIABLES
  2
AcDbWipeoutVariables
  3
WipeOut|AutoCAD Express Tool|expresstools@autodesk.com
 90
        0
280
     0
281
     0
  0
CLASS
  1
RTEXT
  2
RText
  3
RText|AutoCAD Express Tool|expresstools@autodesk.com
 90
    32768
280
     0
281
     1
  0
CLASS
  1
ARCALIGNEDTEXT
  2
AcDbArcAlignedText
  3
ATEXT|AutoCAD Express Tool|expresstools@autodesk.com
 90
    32768
280
     0
281
     1
  0
ENDSEC
  0
SECTION
  2
TABLES
  0
TABLE
  2
VPORT
  5
7
100
AcDbSymbolTable
 70
     1
  0
VPORT
  5
15
100
AcDbSymbolTableRecord
100
AcDbViewportTableRecord
  2
*ACTIVE
 70
     0
 10
0.0
 20
0.0
 11
1.0
 21
1.0
 12
6.591288
 22
4.579184
 13
0.0
 23
0.0
 14
1.0
 24
1.0
 15
0.0
 25
0.0
 16
0.0
 26
0.0
 36
1.0
 17
0.0
 27
0.0
 37
0.0
 40
9.158369
 41
0.688564
 42
50.0
 43
0.0
 44
0.0
 50
0.0
 51
0.0
 71
     0
 72
   100
 73
     1
 74
     1
 75
     0
 76
     0
 77
     0
 78
     0
281
     0
 65
     0
110
0.0
120
0.0
130
0.0
111
1.0
121
0.0
131
0.0
112
0.0
122
1.0
132
0.0
345
0
346
0
 79
     0
146
0.0
  0
ENDTAB
  0
TABLE
  2
LTYPE
  5
4
100
AcDbSymbolTable
 70
     3
  0
LTYPE
  5
11
100
AcDbSymbolTableRecord
100
AcDbLinetypeTableRecord
  2
ByBlock
 70
    64
  3

 72
    65
 73
     0
 40
0.0
  0
LTYPE
  5
12
100
AcDbSymbolTableRecord
100
AcDbLinetypeTableRecord
  2
ByLayer
 70
    64
  3

 72
    65
 73
     0
 40
0.0
  0
LTYPE
  5
13
100
AcDbSymbolTableRecord
100
AcDbLinetypeTableRecord
  2
Continuous
 70
    64
  3
Solid line
 72
    65
 73
     0
 40
0.0
  0
ENDTAB
  0
TABLE
  2
LAYER
  5
2
100
AcDbSymbolTable
 70
     2
  0
LAYER
  5
14
100
AcDbSymbolTableRecord
100
AcDbLayerTableRecord
  2
0
 70
     0
 62
     7
  6
Continuous
290
     1
370
    -3
390
1D
  0
LAYER
  5
24
100
AcDbSymbolTableRecord
100
AcDbLayerTableRecord
  2
Ebene 1
 70
     0
 62
     7
  6
Continuous
290
     1
370
    -3
390
1F
  0
ENDTAB
  0
TABLE
  2
STYLE
  5
3
100
AcDbSymbolTable
 70
     2
  0
STYLE
  5
17
100
AcDbSymbolTableRecord
100
AcDbTextStyleTableRecord
  2
Standard
 70
     0
 40
0.0
 41
1.0
 50
0.0
 71
     0
 42
0.0
  3
txt
  4

  0
STYLE
  5
38
100
AcDbSymbolTableRecord
100
AcDbTextStyleTableRecord
  2
Arial
 70
     0
 40
1.0
 41
1.0
 50
0.0
 71
     0
 42
1.0
  3
Arial
  4

  0
ENDTAB
  0
TABLE
  2
VIEW
  5
5
100
AcDbSymbolTable
 70
     0
  0
ENDTAB
  0
TABLE
  2
UCS
  5
6
100
AcDbSymbolTable
 70
     0
  0
ENDTAB
  0
TABLE
  2
APPID
  5
8
100
AcDbSymbolTable
 70
     1
  0
APPID
  5
16
100
AcDbSymbolTableRecord
100
AcDbRegAppTableRecord
  2
ACAD
 70
     0
  0
ENDTAB
  0
TABLE
  2
DIMSTYLE
  5
9
100
AcDbSymbolTable
 70
     1
100
AcDbDimStyleTable
 71
     0
  0
DIMSTYLE
105
18
100
AcDbSymbolTableRecord
100
AcDbDimStyleTableRecord
  2
Standard
 70
     0
  3

  4

 40
1.0
 41
0.18
 42
0.0625
 43
0.38
 44
0.18
 45
0.0
 46
0.0
 47
0.0
 48
0.0
 71
     0
 72
     0
 73
     1
 74
     1
 75
     0
 76
     0
 77
     0
 78
     0
 79
     0
140
0.18
141
0.09
142
0.0
143
25.4
144
1.0
145
0.0
146
1.0
147
0.09
148
0.0
170
     0
171
     2
172
     0
173
     0
174
     0
175
     0
176
     0
177
     0
178
     0
179
     0
271
     4
272
     4
273
     2
274
     2
275
     0
276
     0
277
     2
278
    46
279
     0
280
     0
281
     0
282
     0
283
     1
284
     0
285
     0
286
     0
288
     0
340
17
341
0
342
0
343
0
344
0
371
    -2
372
    -2
  0
ENDTAB
  0
TABLE
  2
BLOCK_RECORD
  5
1
100
AcDbSymbolTable
 70
     0
  0
BLOCK_RECORD
  5
A
100
AcDbSymbolTableRecord
100
AcDbBlockTableRecord
  2
*MODEL_SPACE
340
20
  0
BLOCK_RECORD
  5
B
100
AcDbSymbolTableRecord
100
AcDbBlockTableRecord
  2
*PAPER_SPACE
340
21
  0
ENDTAB
  0
ENDSEC
  0
SECTION
  2
BLOCKS
  0
BLOCK
  5
D
100
AcDbEntity
  8
0
100
AcDbBlockBegin
  2
*MODEL_SPACE
 70
     0
 10
0.0
 20
0.0
 30
0.0
  3
*MODEL_SPACE
  1

  0
ENDBLK
  5
E
100
AcDbEntity
  8
0
100
AcDbBlockEnd
  0
BLOCK
  5
F
100
AcDbEntity
 67
     1
  8
0
100
AcDbBlockBegin
  2
*PAPER_SPACE
 70
     0
 10
0.0
 20
0.0
 30
0.0
  3
*PAPER_SPACE
  1

  0
ENDBLK
  5
10
100
AcDbEntity
 67
     1
  8
0
100
AcDbBlockEnd
  0
ENDSEC
  0
SECTION
  2
ENTITIES
  0
SPLINE
  5
25
100
AcDbEntity
  8
Ebene 1
370
    20
100
AcDbSpline
210
0.0
220
0.0
230
1.0
 70
     0
 71
     3
 72
     8
 73
     4
 74
     0
 42
0.0000000001
 43
0.0000000001
 40
0.0
 40
0.0
 40
0.0
 40
0.0
 40
1.0
 40
1.0
 40
1.0
 40
1.0
 10
-37.647400000000005
 20
73.755200000000002
 30
0.0
 10
-37.647400000000005
 20
73.755200000000002
 30
0.0
 10
18.322400000000002
 20
73.755200000000002
 30
0.0
 10
18.322400000000002
 20
73.755200000000002
 30
0.0
  0
SPLINE
  5
26
100
AcDbEntity
  8
Ebene 1
370
    20
100
AcDbSpline
210
0.0
220
0.0
230
1.0
 70
     0
 71
     3
 72
     8
 73
     4
 74
     0
 42
0.0000000001
 43
0.0000000001
 40
0.0
 40
0.0
 40
0.0
 40
0.0
 40
1.0
 40
1.0
 40
1.0
 40
1.0
 10
-26.932000000000002
 20
75.165900000000008
 30
0.0
 10
-26.932000000000002
 20
75.165900000000008
 30
0.0
 10
-37.647400000000005
 20
73.755200000000002
 30
0.0
 10
-37.647400000000005
 20
73.755200000000002
 30
0.0
  0
SPLINE
  5
27
100
AcDbEntity
  8
Ebene 1
370
    20
100
AcDbSpline
210
0.0
220
0.0
230
1.0
 70
     0
 71
     3
 72
     8
 73
     4
 74
     0
 42
0.0000000001
 43
0.0000000001
 40
0.0
 40
0.0
 40
0.0
 40
0.0
 40
1.0
 40
1.0
 40
1.0
 40
1.0
 10
-37.647400000000005
 20
73.755200000000002
 30
0.0
 10
-37.647400000000005
 20
73.755200000000002
 30
0.0
 10
-26.932000000000002
 20
72.344400000000007
 30
0.0
 10
-26.932000000000002
 20
72.344400000000007
 30
0.0
  0
SPLINE
  5
28
100
AcDbEntity
  8
Ebene 1
370
    20
100
AcDbSpline
210
0.0
220
0.0
230
1.0
 70
     0
 71
     3
 72
     8
 73
     4
 74
     0
 42
0.0000000001
 43
0.0000000001
 40
0.0
 40
0.0
 40
0.0
 40
0.0
 40
1.0
 40
1.0
 40
1.0
 40
1.0
 10
-26.932000000000002
 20
72.344400000000007
 30
0.0
 10
-26.932000000000002
 20
72.344400000000007
 30
0.0
 10
-26.932000000000002
 20
75.165900000000008
 30
0.0
 10
-26.932000000000002
 20
75.165900000000008
 30
0.0
  0
SPLINE
  5
29
100
AcDbEntity
  8
Ebene 1
370
    20
100
AcDbSpline
210
0.0
220
0.0
230
1.0
 70
     0
 71
     3
 72
     8
 73
     4
 74
     0
 42
0.0000000001
 43
0.0000000001
 40
0.0
 40
0.0
 40
0.0
 40
0.0
 40
1.0
 40
1.0
 40
1.0
 40
1.0
 10
-26.908000000000001
 20
74.799000000000007
 30
0.0
 10
-26.908000000000001
 20
74.799000000000007
 30
0.0
 10
-34.837299999999999
 20
73.755200000000002
 30
0.0
 10
-34.837299999999999
 20
73.755200000000002
 30
0.0
  0
SPLINE
  5
2A
100
AcDbEntity
  8
Ebene 1
370
    20
100
AcDbSpline
210
0.0
220
0.0
230
1.0
 70
     0
 71
     3
 72
     8
 73
     4
 74
     0
 42
0.0000000001
 43
0.0000000001
 40
0.0
 40
0.0
 40
0.0
 40
0.0
 40
1.0
 40
1.0
 40
1.0
 40
1.0
 10
-34.837299999999999
 20
73.755200000000002
 30
0.0
 10
-34.837299999999999
 20
73.755200000000002
 30
0.0
 10
-26.908000000000001
 20
72.711100000000002
 30
0.0
 10
-26.908000000000001
 20
72.711100000000002
 30
0.0
  0
SPLINE
  5
2B
100
AcDbEntity
  8
Ebene 1
370
    20
100
AcDbSpline
210
0.0
220
0.0
230
1.0
 70
     0
 71
     3
 72
     8
 73
     4
 74
     0
 42
0.0000000001
 43
0.0000000001
 40
0.0
 40
0.0
 40
0.0
 40
0.0
 40
1.0
 40
1.0
 40
1.0
 40
1.0
 10
-26.883900000000001
 20
74.432200000000009
 30
0.0
 10
-26.883900000000001
 20
74.432200000000009
 30
0.0
 10
-32.0274
 20
73.755200000000002
 30
0.0
 10
-32.0274
 20
73.755200000000002
 30
0.0
  0
SPLINE
  5
2C
100
AcDbEntity
  8
Ebene 1
370
    20
100
AcDbSpline
210
0.0
220
0.0
230
1.0
 70
     0
 71
     3
 72
     8
 73
     4
 74
     0
 42
0.0000000001
 43
0.0000000001
 40
0.0
 40
0.0
 40
0.0
 40
0.0
 40
1.0
 40
1.0
 40
1.0
 40
1.0
 10
-32.0274
 20
73.755200000000002
 30
0.0
 10
-32.0274
 20
73.755200000000002
 30
0.0
 10
-26.883900000000001
 20
73.077800000000011
 30
0.0
 10
-26.883900000000001
 20
73.077800000000011
 30
0.0
  0
SPLINE
  5
2D
100
AcDbEntity
  8
Ebene 1
370
    20
100
AcDbSpline
210
0.0
220
0.0
230
1.0
 70
     0
 71
     3
 72
     8
 73
     4
 74
     0
 42
0.0000000001
 43
0.0000000001
 40
0.0
 40
0.0
 40
0.0
 40
0.0
 40
1.0
 40
1.0
 40
1.0
 40
1.0
 10
-26.8599
 20
74.065399999999997
 30
0.0
 10
-26.8599
 20
74.065399999999997
 30
0.0
 10
-29.217300000000002
 20
73.755200000000002
 30
0.0
 10
-29.217300000000002
 20
73.755200000000002
 30
0.0
  0
SPLINE
  5
2E
100
AcDbEntity
  8
Ebene 1
370
    20
100
AcDbSpline
210
0.0
220
0.0
230
1.0
 70
     0
 71
     3
 72
     8
 73
     4
 74
     0
 42
0.0000000001
 43
0.0000000001
 40
0.0
 40
0.0
 40
0.0
 40
0.0
 40
1.0
 40
1.0
 40
1.0
 40
1.0
 10
-29.217300000000002
 20
73.755200000000002
 30
0.0
 10
-29.217300000000002
 20
73.755200000000002
 30
0.0
 10
-26.8599
 20
73.444699999999997
 30
0.0
 10
-26.8599
 20
73.444699999999997
 30
0.0
  0
SPLINE
  5
2F
100
AcDbEntity
  8
Ebene 1
370
    20
100
AcDbSpline
210
0.0
220
0.0
230
1.0
 70
     0
 71
     3
 72
     8
 73
     4
 74
     0
 42
0.0000000001
 43
0.0000000001
 40
0.0
 40
0.0
 40
0.0
 40
0.0
 40
1.0
 40
1.0
 40
1.0
 40
1.0
 10
7.6068000000000007
 20
72.344400000000007
 30
0.0
 10
7.6068000000000007
 20
72.344400000000007
 30
0.0
 10
18.322400000000002
 20
73.755200000000002
 30
0.0
 10
18.322400000000002
 20
73.755200000000002
 30
0.0
  0
SPLINE
  5
30
100
AcDbEntity
  8
Ebene 1
370
    20
100
AcDbSpline
210
0.0
220
0.0
230
1.0
 70
     0
 71
     3
 72
     8
 73
     4
 74
     0
 42
0.0000000001
 43
0.0000000001
 40
0.0
 40
0.0
 40
0.0
 40
0.0
 40
1.0
 40
1.0
 40
1.0
 40
1.0
 10
18.322400000000002
 20
73.755200000000002
 30
0.0
 10
18.322400000000002
 20
73.755200000000002
 30
0.0
 10
7.6068000000000007
 20
75.165900000000008
 30
0.0
 10
7.6068000000000007
 20
75.165900000000008
 30
0.0
  0
SPLINE
  5
31
100
AcDbEntity
  8
Ebene 1
370
    20
100
AcDbSpline
210
0.0
220
0.0
230
1.0
 70
     0
 71
     3
 72
     8
 73
     4
 74
     0
 42
0.0000000001
 43
0.0000000001
 40
0.0
 40
0.0
 40
0.0
 40
0.0
 40
1.0
 40
1.0
 40
1.0
 40
1.0
 10
7.6068000000000007
 20
75.165900000000008
 30
0.0
 10
7.6068000000000007
 20
75.165900000000008
 30
0.0
 10
7.6068000000000007
 20
72.344400000000007
 30
0.0
 10
7.6068000000000007
 20
72.344400000000007
 30
0.0
  0
SPLINE
  5
32
100
AcDbEntity
  8
Ebene 1
370
    20
100
AcDbSpline
210
0.0
220
0.0
230
1.0
 70
     0
 71
     3
 72
     8
 73
     4
 74
     0
 42
0.0000000001
 43
0.0000000001
 40
0.0
 40
0.0
 40
0.0
 40
0.0
 40
1.0
 40
1.0
 40
1.0
 40
1.0
 10
7.5827
 20
72.711100000000002
 30
0.0
 10
7.5827
 20
72.711100000000002
 30
0.0
 10
15.5121
 20
73.755200000000002
 30
0.0
 10
15.5121
 20
73.755200000000002
 30
0.0
  0
SPLINE
  5
33
100
AcDbEntity
  8
Ebene 1
370
    20
100
AcDbSpline
210
0.0
220
0.0
230
1.0
 70
     0
 71
     3
 72
     8
 73
     4
 74
     0
 42
0.0000000001
 43
0.0000000001
 40
0.0
 40
0.0
 40
0.0
 40
0.0
 40
1.0
 40
1.0
 40
1.0
 40
1.0
 10
15.5121
 20
73.755200000000002
 30
0.0
 10
15.5121
 20
73.755200000000002
 30
0.0
 10
7.5827
 20
74.799000000000007
 30
0.0
 10
7.5827
 20
74.799000000000007
 30
0.0
  0
SPLINE
  5
34
100
AcDbEntity
  8
Ebene 1
370
    20
100
AcDbSpline
210
0.0
220
0.0
230
1.0
 70
     0
 71
     3
 72
     8
 73
     4
 74
     0
 42
0.0000000001
 43
0.0000000001
 40
0.0
 40
0.0
 40
0.0
 40
0.0
 40
1.0
 40
1.0
 40
1.0
 40
1.0
 10
7.5587
 20
73.077800000000011
 30
0.0
 10
7.5587
 20
73.077800000000011
 30
0.0
 10
12.7021
 20
73.755200000000002
 30
0.0
 10
12.7021
 20
73.755200000000002
 30
0.0
  0
SPLINE
  5
35
100
AcDbEntity
  8
Ebene 1
370
    20
100
AcDbSpline
210
0.0
220
0.0
230
1.0
 70
     0
 71
     3
 72
     8
 73
     4
 74
     0
 42
0.0000000001
 43
0.0000000001
 40
0.0
 40
0.0
 40
0.0
 40
0.0
 40
1.0
 40
1.0
 40
1.0
 40
1.0
 10
12.7021
 20
73.755200000000002
 30
0.0
 10
12.7021
 20
73.755200000000002
 30
0.0
 10
7.5587
 20
74.432200000000009
 30
0.0
 10
7.5587
 20
74.432200000000009
 30
0.0
  0
SPLINE
  5
36
100
AcDbEntity
  8
Ebene 1
370
    20
100
AcDbSpline
210
0.0
220
0.0
230
1.0
 70
     0
 71
     3
 72
     8
 73
     4
 74
     0
 42
0.0000000001
 43
0.0000000001
 40
0.0
 40
0.0
 40
0.0
 40
0.0
 40
1.0
 40
1.0
 40
1.0
 40
1.0
 10
7.5347
 20
73.444699999999997
 30
0.0
 10
7.5347
 20
73.444699999999997
 30
0.0
 10
9.8922000000000008
 20
73.755200000000002
 30
0.0
 10
9.8922000000000008
 20
73.755200000000002
 30
0.0
  0
SPLINE
  5
37
100
AcDbEntity
  8
Ebene 1
370
    20
100
AcDbSpline
210
0.0
220
0.0
230
1.0
 70
     0
 71
     3
 72
     8
 73
     4
 74
     0
 42
0.0000000001
 43
0.0000000001
 40
0.0
 40
0.0
 40
0.0
 40
0.0
 40
1.0
 40
1.0
 40
1.0
 40
1.0
 10
9.8922000000000008
 20
73.755200000000002
 30
0.0
 10
9.8922000000000008
 20
73.755200000000002
 30
0.0
 10
7.5347
 20
74.065399999999997
 30
0.0
 10
7.5347
 20
74.065399999999997
 30
0.0
  0
TEXT
  5
39
100
AcDbEntity
  8
Ebene 1
100
AcDbText
 10
-18.1927
 20
76.2915
 30
0.0
 40
7.860744
  1
145
 41
1.000015
 51
-0.000002
  7
Arial
100
AcDbText
  0
SPLINE
  5
3A
100
AcDbEntity
  8
Ebene 1
370
    20
100
AcDbSpline
210
0.0
220
0.0
230
1.0
 70
     0
 71
     3
 72
     8
 73
     4
 74
     0
 42
0.0000000001
 43
0.0000000001
 40
0.0
 40
0.0
 40
0.0
 40
0.0
 40
1.0
 40
1.0
 40
1.0
 40
1.0
 10
-37.647400000000005
 20
39.859999999999999
 30
0.0
 10
-37.647400000000005
 20
39.859999999999999
 30
0.0
 10
-37.647400000000005
 20
80.239800000000002
 30
0.0
 10
-37.647400000000005
 20
80.239800000000002
 30
0.0
  0
SPLINE
  5
3B
100
AcDbEntity
  8
Ebene 1
370
    20
100
AcDbSpline
210
0.0
220
0.0
230
1.0
 70
     0
 71
     3
 72
     8
 73
     4
 74
     0
 42
0.0000000001
 43
0.0000000001
 40
0.0
 40
0.0
 40
0.0
 40
0.0
 40
1.0
 40
1.0
 40
1.0
 40
1.0
 10
18.322400000000002
 20
39.859999999999999
 30
0.0
 10
18.322400000000002
 20
39.859999999999999
 30
0.0
 10
18.322400000000002
 20
80.239800000000002
 30
0.0
 10
18.322400000000002
 20
80.239800000000002
 30
0.0
  0
SPLINE
  5
3C
100
AcDbEntity
  8
Ebene 1
370
    35
100
AcDbSpline
210
0.0
220
0.0
230
1.0
 70
     0
 71
     3
 72
     8
 73
     4
 74
     0
 42
0.0000000001
 43
0.0000000001
 40
0.0
 40
0.0
 40
0.0
 40
0.0
 40
1.0
 40
1.0
 40
1.0
 40
1.0
 10
-10.820500000000001
 20
18.224700000000002
 30
0.0
 10
-10.820500000000001
 20
18.224700000000002
 30
0.0
 10
-10.820500000000001
 20
18.224700000000002
 30
0.0
 10
-10.820500000000001
 20
18.224700000000002
 30
0.0
  0
SPLINE
  5
3D
100
AcDbEntity
  8
Ebene 1
370
    35
100
AcDbSpline
210
0.0
220
0.0
230
1.0
 70
     0
 71
     3
 72
     8
 73
     4
 74
     0
 42
0.0000000001
 43
0.0000000001
 40
0.0
 40
0.0
 40
0.0
 40
0.0
 40
1.0
 40
1.0
 40
1.0
 40
1.0
 10
-10.820500000000001
 20
15.9055
 30
0.0
 10
-10.820500000000001
 20
15.9055
 30
0.0
 10
-10.820500000000001
 20
18.224700000000002
 30
0.0
 10
-10.820500000000001
 20
18.224700000000002
 30
0.0
  0
SPLINE
  5
3E
100
AcDbEntity
  8
Ebene 1
370
    35
100
AcDbSpline
210
0.0
220
0.0
230
1.0
 70
     0
 71
     3
 72
     8
 73
     4
 74
     0
 42
0.0000000001
 43
0.0000000001
 40
0.0
 40
0.0
 40
0.0
 40
0.0
 40
1.0
 40
1.0
 40
1.0
 40
1.0
 10
-30.2149
 20
35.5625
 30
0.0
 10
-28.592300000000002
 20
25.963200000000001
 30
0.0
 10
-20.541
 20
18.765599999999999
 30
0.0
 10
-10.820500000000001
 20
18.224700000000002
 30
0.0
  0
SPLINE
  5
3F
100
AcDbEntity
  8
Ebene 1
370
    35
100
AcDbSpline
210
0.0
220
0.0
230
1.0
 70
     0
 71
     3
 72
     8
 73
     4
 74
     0
 42
0.0000000001
 43
0.0000000001
 40
0.0
 40
0.0
 40
0.0
 40
0.0
 40
1.0
 40
1.0
 40
1.0
 40
1.0
 10
-30.2149
 20
35.5625
 30
0.0
 10
-30.2149
 20
35.5625
 30
0.0
 10
-27.861900000000002
 20
35.5625
 30
0.0
 10
-27.861900000000002
 20
35.5625
 30
0.0
  0
SPLINE
  5
40
100
AcDbEntity
  8
Ebene 1
370
    35
100
AcDbSpline
210
0.0
220
0.0
230
1.0
 70
     0
 71
     3
 72
     8
 73
     4
 74
     0
 42
0.0000000001
 43
0.0000000001
 40
0.0
 40
0.0
 40
0.0
 40
0.0
 40
1.0
 40
1.0
 40
1.0
 40
1.0
 10
-27.861900000000002
 20
35.5625
 30
0.0
 10
-26.2758
 20
27.253300000000003
 30
0.0
 10
-19.263200000000001
 20
21.073399999999999
 30
0.0
 10
-10.820500000000001
 20
20.544700000000002
 30
0.0
  0
SPLINE
  5
41
100
AcDbEntity
  8
Ebene 1
370
    35
100
AcDbSpline
210
0.0
220
0.0
230
1.0
 70
     0
 71
     3
 72
     8
 73
     4
 74
     0
 42
0.0000000001
 43
0.0000000001
 40
0.0
 40
0.0
 40
0.0
 40
0.0
 40
1.0
 40
1.0
 40
1.0
 40
1.0
 10
-10.820500000000001
 20
27.514600000000002
 30
0.0
 10
-10.820500000000001
 20
27.514600000000002
 30
0.0
 10
-10.820500000000001
 20
27.514600000000002
 30
0.0
 10
-10.820500000000001
 20
27.514600000000002
 30
0.0
  0
SPLINE
  5
42
100
AcDbEntity
  8
Ebene 1
370
    35
100
AcDbSpline
210
0.0
220
0.0
230
1.0
 70
     0
 71
     3
 72
     8
 73
     4
 74
     0
 42
0.0000000001
 43
0.0000000001
 40
0.0
 40
0.0
 40
0.0
 40
0.0
 40
1.0
 40
1.0
 40
1.0
 40
1.0
 10
-10.820500000000001
 20
27.514600000000002
 30
0.0
 10
-10.820500000000001
 20
27.514600000000002
 30
0.0
 10
-10.820500000000001
 20
20.544700000000002
 30
0.0
 10
-10.820500000000001
 20
20.544700000000002
 30
0.0
  0
SPLINE
  5
43
100
AcDbEntity
  8
Ebene 1
370
    35
100
AcDbSpline
210
0.0
220
0.0
230
1.0
 70
     0
 71
     3
 72
     8
 73
     4
 74
     0
 42
0.0000000001
 43
0.0000000001
 40
0.0
 40
0.0
 40
0.0
 40
0.0
 40
1.0
 40
1.0
 40
1.0
 40
1.0
 10
-20.709099999999999
 20
35.5625
 30
0.0
 10
-19.319400000000002
 20
31.143500000000003
 30
0.0
 10
-15.4297
 20
27.977800000000002
 30
0.0
 10
-10.820500000000001
 20
27.514600000000002
 30
0.0
  0
SPLINE
  5
44
100
AcDbEntity
  8
Ebene 1
370
    35
100
AcDbSpline
210
0.0
220
0.0
230
1.0
 70
     0
 71
     3
 72
     8
 73
     4
 74
     0
 42
0.0000000001
 43
0.0000000001
 40
0.0
 40
0.0
 40
0.0
 40
0.0
 40
1.0
 40
1.0
 40
1.0
 40
1.0
 10
-18.250500000000002
 20
35.5625
 30
0.0
 10
-18.250500000000002
 20
35.5625
 30
0.0
 10
-18.250500000000002
 20
35.5625
 30
0.0
 10
-18.250500000000002
 20
35.5625
 30
0.0
  0
SPLINE
  5
45
100
AcDbEntity
  8
Ebene 1
370
    35
100
AcDbSpline
210
0.0
220
0.0
230
1.0
 70
     0
 71
     3
 72
     8
 73
     4
 74
     0
 42
0.0000000001
 43
0.0000000001
 40
0.0
 40
0.0
 40
0.0
 40
0.0
 40
1.0
 40
1.0
 40
1.0
 40
1.0
 10
-20.709099999999999
 20
35.5625
 30
0.0
 10
-20.709099999999999
 20
35.5625
 30
0.0
 10
-18.250500000000002
 20
35.5625
 30
0.0
 10
-18.250500000000002
 20
35.5625
 30
0.0
  0
SPLINE
  5
46
100
AcDbEntity
  8
Ebene 1
370
    35
100
AcDbSpline
210
0.0
220
0.0
230
1.0
 70
     0
 71
     3
 72
     8
 73
     4
 74
     0
 42
0.0000000001
 43
0.0000000001
 40
0.0
 40
0.0
 40
0.0
 40
0.0
 40
1.0
 40
1.0
 40
1.0
 40
1.0
 10
-18.250500000000002
 20
35.5625
 30
0.0
 10
-16.992100000000001
 20
32.451799999999999
 30
0.0
 10
-14.149800000000001
 20
30.264600000000002
 30
0.0
 10
-10.820500000000001
 20
29.845200000000002
 30
0.0
  0
SPLINE
  5
47
100
AcDbEntity
  8
Ebene 1
370
    35
100
AcDbSpline
210
0.0
220
0.0
230
1.0
 70
     0
 71
     3
 72
     8
 73
     4
 74
     0
 42
0.0000000001
 43
0.0000000001
 40
0.0
 40
0.0
 40
0.0
 40
0.0
 40
1.0
 40
1.0
 40
1.0
 40
1.0
 10
-10.820500000000001
 20
32.185700000000004
 30
0.0
 10
-10.820500000000001
 20
32.185700000000004
 30
0.0
 10
-10.820500000000001
 20
32.185700000000004
 30
0.0
 10
-10.820500000000001
 20
32.185700000000004
 30
0.0
  0
SPLINE
  5
48
100
AcDbEntity
  8
Ebene 1
370
    35
100
AcDbSpline
210
0.0
220
0.0
230
1.0
 70
     0
 71
     3
 72
     8
 73
     4
 74
     0
 42
0.0000000001
 43
0.0000000001
 40
0.0
 40
0.0
 40
0.0
 40
0.0
 40
1.0
 40
1.0
 40
1.0
 40
1.0
 10
-10.820500000000001
 20
29.845200000000002
 30
0.0
 10
-10.820500000000001
 20
29.845200000000002
 30
0.0
 10
-10.820500000000001
 20
32.185700000000004
 30
0.0
 10
-10.820500000000001
 20
32.185700000000004
 30
0.0
  0
SPLINE
  5
49
100
AcDbEntity
  8
Ebene 1
370
    35
100
AcDbSpline
210
0.0
220
0.0
230
1.0
 70
     0
 71
     3
 72
     8
 73
     4
 74
     0
 42
0.0000000001
 43
0.0000000001
 40
0.0
 40
0.0
 40
0.0
 40
0.0
 40
1.0
 40
1.0
 40
1.0
 40
1.0
 10
-16.513300000000001
 20
37.878500000000003
 30
0.0
 10
-16.020500000000002
 20
34.962900000000005
 30
0.0
 10
-13.7362
 20
32.678600000000003
 30
0.0
 10
-10.820500000000001
 20
32.185700000000004
 30
0.0
  0
SPLINE
  5
4A
100
AcDbEntity
  8
Ebene 1
370
    35
100
AcDbSpline
210
0.0
220
0.0
230
1.0
 70
     0
 71
     3
 72
     8
 73
     4
 74
     0
 42
0.0000000001
 43
0.0000000001
 40
0.0
 40
0.0
 40
0.0
 40
0.0
 40
1.0
 40
1.0
 40
1.0
 40
1.0
 10
-16.513300000000001
 20
37.878500000000003
 30
0.0
 10
-16.513300000000001
 20
37.878500000000003
 30
0.0
 10
-16.513300000000001
 20
37.878500000000003
 30
0.0
 10
-16.513300000000001
 20
37.878500000000003
 30
0.0
  0
SPLINE
  5
4B
100
AcDbEntity
  8
Ebene 1
370
    35
100
AcDbSpline
210
0.0
220
0.0
230
1.0
 70
     0
 71
     3
 72
     8
 73
     4
 74
     0
 42
0.0000000001
 43
0.0000000001
 40
0.0
 40
0.0
 40
0.0
 40
0.0
 40
1.0
 40
1.0
 40
1.0
 40
1.0
 10
-16.513300000000001
 20
37.878500000000003
 30
0.0
 10
-16.513300000000001
 20
37.878500000000003
 30
0.0
 10
-23.510100000000001
 20
37.878500000000003
 30
0.0
 10
-23.510100000000001
 20
37.878500000000003
 30
0.0
  0
SPLINE
  5
4C
100
AcDbEntity
  8
Ebene 1
370
    35
100
AcDbSpline
210
0.0
220
0.0
230
1.0
 70
     0
 71
     3
 72
     8
 73
     4
 74
     0
 42
0.0000000001
 43
0.0000000001
 40
0.0
 40
0.0
 40
0.0
 40
0.0
 40
1.0
 40
1.0
 40
1.0
 40
1.0
 10
-23.510100000000001
 20
37.878500000000003
 30
0.0
 10
-23.017800000000001
 20
31.991200000000003
 30
0.0
 10
-18.8568
 20
27.058800000000002
 30
0.0
 10
-13.1365
 20
25.581800000000001
 30
0.0
  0
SPLINE
  5
4D
100
AcDbEntity
  8
Ebene 1
370
    35
100
AcDbSpline
210
0.0
220
0.0
230
1.0
 70
     0
 71
     3
 72
     8
 73
     4
 74
     0
 42
0.0000000001
 43
0.0000000001
 40
0.0
 40
0.0
 40
0.0
 40
0.0
 40
1.0
 40
1.0
 40
1.0
 40
1.0
 10
-13.1365
 20
25.581800000000001
 30
0.0
 10
-13.1365
 20
25.581800000000001
 30
0.0
 10
-13.1365
 20
25.581800000000001
 30
0.0
 10
-13.1365
 20
25.581800000000001
 30
0.0
  0
SPLINE
  5
4E
100
AcDbEntity
  8
Ebene 1
370
    35
100
AcDbSpline
210
0.0
220
0.0
230
1.0
 70
     0
 71
     3
 72
     8
 73
     4
 74
     0
 42
0.0000000001
 43
0.0000000001
 40
0.0
 40
0.0
 40
0.0
 40
0.0
 40
1.0
 40
1.0
 40
1.0
 40
1.0
 10
-13.1365
 20
25.581800000000001
 30
0.0
 10
-13.1365
 20
25.581800000000001
 30
0.0
 10
-13.1365
 20
23.2011
 30
0.0
 10
-13.1365
 20
23.2011
 30
0.0
  0
SPLINE
  5
4F
100
AcDbEntity
  8
Ebene 1
370
    35
100
AcDbSpline
210
0.0
220
0.0
230
1.0
 70
     0
 71
     3
 72
     8
 73
     4
 74
     0
 42
0.0000000001
 43
0.0000000001
 40
0.0
 40
0.0
 40
0.0
 40
0.0
 40
1.0
 40
1.0
 40
1.0
 40
1.0
 10
-25.833100000000002
 20
37.878500000000003
 30
0.0
 10
-25.319900000000001
 20
30.7135
 30
0.0
 10
-20.153000000000002
 20
24.740400000000001
 30
0.0
 10
-13.1365
 20
23.2011
 30
0.0
  0
SPLINE
  5
50
100
AcDbEntity
  8
Ebene 1
370
    35
100
AcDbSpline
210
0.0
220
0.0
230
1.0
 70
     0
 71
     3
 72
     8
 73
     4
 74
     0
 42
0.0000000001
 43
0.0000000001
 40
0.0
 40
0.0
 40
0.0
 40
0.0
 40
1.0
 40
1.0
 40
1.0
 40
1.0
 10
-32.793500000000002
 20
37.878500000000003
 30
0.0
 10
-32.793500000000002
 20
37.878500000000003
 30
0.0
 10
-25.833100000000002
 20
37.878500000000003
 30
0.0
 10
-25.833100000000002
 20
37.878500000000003
 30
0.0
  0
SPLINE
  5
51
100
AcDbEntity
  8
Ebene 1
370
    35
100
AcDbSpline
210
0.0
220
0.0
230
1.0
 70
     0
 71
     3
 72
     8
 73
     4
 74
     0
 42
0.0000000001
 43
0.0000000001
 40
0.0
 40
0.0
 40
0.0
 40
0.0
 40
1.0
 40
1.0
 40
1.0
 40
1.0
 10
-32.793500000000002
 20
37.878500000000003
 30
0.0
 10
-32.198700000000002
 20
25.998200000000001
 30
0.0
 10
-22.700700000000001
 20
16.500299999999999
 30
0.0
 10
-10.820500000000001
 20
15.9055
 30
0.0
  0
SPLINE
  5
52
100
AcDbEntity
  8
Ebene 1
370
    35
100
AcDbSpline
210
0.0
220
0.0
230
1.0
 70
     0
 71
     3
 72
     8
 73
     4
 74
     0
 42
0.0000000001
 43
0.0000000001
 40
0.0
 40
0.0
 40
0.0
 40
0.0
 40
1.0
 40
1.0
 40
1.0
 40
1.0
 10
-8.5045000000000002
 20
62.1676
 30
0.0
 10
-8.5045000000000002
 20
62.1676
 30
0.0
 10
-8.5045000000000002
 20
62.1676
 30
0.0
 10
-8.5045000000000002
 20
62.1676
 30
0.0
  0
SPLINE
  5
53
100
AcDbEntity
  8
Ebene 1
370
    35
100
AcDbSpline
210
0.0
220
0.0
230
1.0
 70
     0
 71
     3
 72
     8
 73
     4
 74
     0
 42
0.0000000001
 43
0.0000000001
 40
0.0
 40
0.0
 40
0.0
 40
0.0
 40
1.0
 40
1.0
 40
1.0
 40
1.0
 10
-8.5045000000000002
 20
62.1676
 30
0.0
 10
-8.5045000000000002
 20
62.1676
 30
0.0
 10
-8.5045000000000002
 20
59.848400000000005
 30
0.0
 10
-8.5045000000000002
 20
59.848400000000005
 30
0.0
  0
SPLINE
  5
54
100
AcDbEntity
  8
Ebene 1
370
    35
100
AcDbSpline
210
0.0
220
0.0
230
1.0
 70
     0
 71
     3
 72
     8
 73
     4
 74
     0
 42
0.0000000001
 43
0.0000000001
 40
0.0
 40
0.0
 40
0.0
 40
0.0
 40
1.0
 40
1.0
 40
1.0
 40
1.0
 10
10.890000000000001
 20
42.5105
 30
0.0
 10
9.2674000000000003
 20
52.109900000000003
 30
0.0
 10
1.216
 20
59.307500000000005
 30
0.0
 10
-8.5045000000000002
 20
59.848400000000005
 30
0.0
  0
SPLINE
  5
55
100
AcDbEntity
  8
Ebene 1
370
    35
100
AcDbSpline
210
0.0
220
0.0
230
1.0
 70
     0
 71
     3
 72
     8
 73
     4
 74
     0
 42
0.0000000001
 43
0.0000000001
 40
0.0
 40
0.0
 40
0.0
 40
0.0
 40
1.0
 40
1.0
 40
1.0
 40
1.0
 10
10.890000000000001
 20
42.5105
 30
0.0
 10
10.890000000000001
 20
42.5105
 30
0.0
 10
10.890000000000001
 20
42.5105
 30
0.0
 10
10.890000000000001
 20
42.5105
 30
0.0
  0
SPLINE
  5
56
100
AcDbEntity
  8
Ebene 1
370
    35
100
AcDbSpline
210
0.0
220
0.0
230
1.0
 70
     0
 71
     3
 72
     8
 73
     4
 74
     0
 42
0.0000000001
 43
0.0000000001
 40
0.0
 40
0.0
 40
0.0
 40
0.0
 40
1.0
 40
1.0
 40
1.0
 40
1.0
 10
10.890000000000001
 20
42.5105
 30
0.0
 10
10.890000000000001
 20
42.5105
 30
0.0
 10
8.536900000000001
 20
42.5105
 30
0.0
 10
8.536900000000001
 20
42.5105
 30
0.0
  0
SPLINE
  5
57
100
AcDbEntity
  8
Ebene 1
370
    35
100
AcDbSpline
210
0.0
220
0.0
230
1.0
 70
     0
 71
     3
 72
     8
 73
     4
 74
     0
 42
0.0000000001
 43
0.0000000001
 40
0.0
 40
0.0
 40
0.0
 40
0.0
 40
1.0
 40
1.0
 40
1.0
 40
1.0
 10
8.536900000000001
 20
42.5105
 30
0.0
 10
6.9508000000000001
 20
50.819800000000001
 30
0.0
 10
-0.0618
 20
56.999600000000001
 30
0.0
 10
-8.5045000000000002
 20
57.528300000000002
 30
0.0
  0
SPLINE
  5
58
100
AcDbEntity
  8
Ebene 1
370
    35
100
AcDbSpline
210
0.0
220
0.0
230
1.0
 70
     0
 71
     3
 72
     8
 73
     4
 74
     0
 42
0.0000000001
 43
0.0000000001
 40
0.0
 40
0.0
 40
0.0
 40
0.0
 40
1.0
 40
1.0
 40
1.0
 40
1.0
 10
-8.5045000000000002
 20
57.528300000000002
 30
0.0
 10
-8.5045000000000002
 20
57.528300000000002
 30
0.0
 10
-8.5045000000000002
 20
57.528300000000002
 30
0.0
 10
-8.5045000000000002
 20
57.528300000000002
 30
0.0
  0
SPLINE
  5
59
100
AcDbEntity
  8
Ebene 1
370
    35
100
AcDbSpline
210
0.0
220
0.0
230
1.0
 70
     0
 71
     3
 72
     8
 73
     4
 74
     0
 42
0.0000000001
 43
0.0000000001
 40
0.0
 40
0.0
 40
0.0
 40
0.0
 40
1.0
 40
1.0
 40
1.0
 40
1.0
 10
-8.5045000000000002
 20
50.558500000000002
 30
0.0
 10
-8.5045000000000002
 20
50.558500000000002
 30
0.0
 10
-8.5045000000000002
 20
57.528300000000002
 30
0.0
 10
-8.5045000000000002
 20
57.528300000000002
 30
0.0
  0
SPLINE
  5
5A
100
AcDbEntity
  8
Ebene 1
370
    35
100
AcDbSpline
210
0.0
220
0.0
230
1.0
 70
     0
 71
     3
 72
     8
 73
     4
 74
     0
 42
0.0000000001
 43
0.0000000001
 40
0.0
 40
0.0
 40
0.0
 40
0.0
 40
1.0
 40
1.0
 40
1.0
 40
1.0
 10
1.3841000000000001
 20
42.5105
 30
0.0
 10
-0.0056
 20
46.929600000000001
 30
0.0
 10
-3.8952
 20
50.095300000000002
 30
0.0
 10
-8.5045000000000002
 20
50.558500000000002
 30
0.0
  0
SPLINE
  5
5B
100
AcDbEntity
  8
Ebene 1
370
    35
100
AcDbSpline
210
0.0
220
0.0
230
1.0
 70
     0
 71
     3
 72
     8
 73
     4
 74
     0
 42
0.0000000001
 43
0.0000000001
 40
0.0
 40
0.0
 40
0.0
 40
0.0
 40
1.0
 40
1.0
 40
1.0
 40
1.0
 10
1.3841000000000001
 20
42.5105
 30
0.0
 10
1.3841000000000001
 20
42.5105
 30
0.0
 10
1.3841000000000001
 20
42.5105
 30
0.0
 10
1.3841000000000001
 20
42.5105
 30
0.0
  0
SPLINE
  5
5C
100
AcDbEntity
  8
Ebene 1
370
    35
100
AcDbSpline
210
0.0
220
0.0
230
1.0
 70
     0
 71
     3
 72
     8
 73
     4
 74
     0
 42
0.0000000001
 43
0.0000000001
 40
0.0
 40
0.0
 40
0.0
 40
0.0
 40
1.0
 40
1.0
 40
1.0
 40
1.0
 10
1.3841000000000001
 20
42.5105
 30
0.0
 10
1.3841000000000001
 20
42.5105
 30
0.0
 10
-1.0745
 20
42.5105
 30
0.0
 10
-1.0745
 20
42.5105
 30
0.0
  0
SPLINE
  5
5D
100
AcDbEntity
  8
Ebene 1
370
    35
100
AcDbSpline
210
0.0
220
0.0
230
1.0
 70
     0
 71
     3
 72
     8
 73
     4
 74
     0
 42
0.0000000001
 43
0.0000000001
 40
0.0
 40
0.0
 40
0.0
 40
0.0
 40
1.0
 40
1.0
 40
1.0
 40
1.0
 10
-1.0745
 20
42.5105
 30
0.0
 10
-2.3329
 20
45.621300000000005
 30
0.0
 10
-5.1751000000000005
 20
47.808399999999999
 30
0.0
 10
-8.5045000000000002
 20
48.227900000000005
 30
0.0
  0
SPLINE
  5
5E
100
AcDbEntity
  8
Ebene 1
370
    35
100
AcDbSpline
210
0.0
220
0.0
230
1.0
 70
     0
 71
     3
 72
     8
 73
     4
 74
     0
 42
0.0000000001
 43
0.0000000001
 40
0.0
 40
0.0
 40
0.0
 40
0.0
 40
1.0
 40
1.0
 40
1.0
 40
1.0
 10
-8.5045000000000002
 20
48.227900000000005
 30
0.0
 10
-8.5045000000000002
 20
48.227900000000005
 30
0.0
 10
-8.5045000000000002
 20
48.227900000000005
 30
0.0
 10
-8.5045000000000002
 20
48.227900000000005
 30
0.0
  0
SPLINE
  5
5F
100
AcDbEntity
  8
Ebene 1
370
    35
100
AcDbSpline
210
0.0
220
0.0
230
1.0
 70
     0
 71
     3
 72
     8
 73
     4
 74
     0
 42
0.0000000001
 43
0.0000000001
 40
0.0
 40
0.0
 40
0.0
 40
0.0
 40
1.0
 40
1.0
 40
1.0
 40
1.0
 10
-8.5045000000000002
 20
48.227900000000005
 30
0.0
 10
-8.5045000000000002
 20
48.227900000000005
 30
0.0
 10
-8.5045000000000002
 20
45.887300000000003
 30
0.0
 10
-8.5045000000000002
 20
45.887300000000003
 30
0.0
  0
SPLINE
  5
60
100
AcDbEntity
  8
Ebene 1
370
    35
100
AcDbSpline
210
0.0
220
0.0
230
1.0
 70
     0
 71
     3
 72
     8
 73
     4
 74
     0
 42
0.0000000001
 43
0.0000000001
 40
0.0
 40
0.0
 40
0.0
 40
0.0
 40
1.0
 40
1.0
 40
1.0
 40
1.0
 10
-2.8117000000000001
 20
40.194500000000005
 30
0.0
 10
-3.3045
 20
43.110199999999999
 30
0.0
 10
-5.5888
 20
45.394500000000001
 30
0.0
 10
-8.5045000000000002
 20
45.887300000000003
 30
0.0
  0
SPLINE
  5
61
100
AcDbEntity
  8
Ebene 1
370
    35
100
AcDbSpline
210
0.0
220
0.0
230
1.0
 70
     0
 71
     3
 72
     8
 73
     4
 74
     0
 42
0.0000000001
 43
0.0000000001
 40
0.0
 40
0.0
 40
0.0
 40
0.0
 40
1.0
 40
1.0
 40
1.0
 40
1.0
 10
4.1852
 20
40.194500000000005
 30
0.0
 10
4.1852
 20
40.194500000000005
 30
0.0
 10
4.1852
 20
40.194500000000005
 30
0.0
 10
4.1852
 20
40.194500000000005
 30
0.0
  0
SPLINE
  5
62
100
AcDbEntity
  8
Ebene 1
370
    35
100
AcDbSpline
210
0.0
220
0.0
230
1.0
 70
     0
 71
     3
 72
     8
 73
     4
 74
     0
 42
0.0000000001
 43
0.0000000001
 40
0.0
 40
0.0
 40
0.0
 40
0.0
 40
1.0
 40
1.0
 40
1.0
 40
1.0
 10
-2.8117000000000001
 20
40.194500000000005
 30
0.0
 10
-2.8117000000000001
 20
40.194500000000005
 30
0.0
 10
4.1852
 20
40.194500000000005
 30
0.0
 10
4.1852
 20
40.194500000000005
 30
0.0
  0
SPLINE
  5
63
100
AcDbEntity
  8
Ebene 1
370
    35
100
AcDbSpline
210
0.0
220
0.0
230
1.0
 70
     0
 71
     3
 72
     8
 73
     4
 74
     0
 42
0.0000000001
 43
0.0000000001
 40
0.0
 40
0.0
 40
0.0
 40
0.0
 40
1.0
 40
1.0
 40
1.0
 40
1.0
 10
4.1852
 20
40.194500000000005
 30
0.0
 10
3.6929000000000003
 20
46.081900000000005
 30
0.0
 10
-0.4682
 20
51.014300000000006
 30
0.0
 10
-6.1885000000000003
 20
52.491300000000003
 30
0.0
  0
SPLINE
  5
64
100
AcDbEntity
  8
Ebene 1
370
    35
100
AcDbSpline
210
0.0
220
0.0
230
1.0
 70
     0
 71
     3
 72
     8
 73
     4
 74
     0
 42
0.0000000001
 43
0.0000000001
 40
0.0
 40
0.0
 40
0.0
 40
0.0
 40
1.0
 40
1.0
 40
1.0
 40
1.0
 10
-6.1885000000000003
 20
54.872
 30
0.0
 10
-6.1885000000000003
 20
54.872
 30
0.0
 10
-6.1885000000000003
 20
54.872
 30
0.0
 10
-6.1885000000000003
 20
54.872
 30
0.0
  0
SPLINE
  5
65
100
AcDbEntity
  8
Ebene 1
370
    35
100
AcDbSpline
210
0.0
220
0.0
230
1.0
 70
     0
 71
     3
 72
     8
 73
     4
 74
     0
 42
0.0000000001
 43
0.0000000001
 40
0.0
 40
0.0
 40
0.0
 40
0.0
 40
1.0
 40
1.0
 40
1.0
 40
1.0
 10
-6.1885000000000003
 20
52.491300000000003
 30
0.0
 10
-6.1885000000000003
 20
52.491300000000003
 30
0.0
 10
-6.1885000000000003
 20
54.872
 30
0.0
 10
-6.1885000000000003
 20
54.872
 30
0.0
  0
SPLINE
  5
66
100
AcDbEntity
  8
Ebene 1
370
    35
100
AcDbSpline
210
0.0
220
0.0
230
1.0
 70
     0
 71
     3
 72
     8
 73
     4
 74
     0
 42
0.0000000001
 43
0.0000000001
 40
0.0
 40
0.0
 40
0.0
 40
0.0
 40
1.0
 40
1.0
 40
1.0
 40
1.0
 10
6.5081000000000007
 20
40.194500000000005
 30
0.0
 10
5.9950000000000001
 20
47.3596
 30
0.0
 10
0.8281000000000001
 20
53.332700000000003
 30
0.0
 10
-6.1885000000000003
 20
54.872
 30
0.0
  0
SPLINE
  5
67
100
AcDbEntity
  8
Ebene 1
370
    35
100
AcDbSpline
210
0.0
220
0.0
230
1.0
 70
     0
 71
     3
 72
     8
 73
     4
 74
     0
 42
0.0000000001
 43
0.0000000001
 40
0.0
 40
0.0
 40
0.0
 40
0.0
 40
1.0
 40
1.0
 40
1.0
 40
1.0
 10
13.4686
 20
40.194500000000005
 30
0.0
 10
13.4686
 20
40.194500000000005
 30
0.0
 10
13.4686
 20
40.194500000000005
 30
0.0
 10
13.4686
 20
40.194500000000005
 30
0.0
  0
SPLINE
  5
68
100
AcDbEntity
  8
Ebene 1
370
    35
100
AcDbSpline
210
0.0
220
0.0
230
1.0
 70
     0
 71
     3
 72
     8
 73
     4
 74
     0
 42
0.0000000001
 43
0.0000000001
 40
0.0
 40
0.0
 40
0.0
 40
0.0
 40
1.0
 40
1.0
 40
1.0
 40
1.0
 10
13.4686
 20
40.194500000000005
 30
0.0
 10
13.4686
 20
40.194500000000005
 30
0.0
 10
6.5081000000000007
 20
40.194500000000005
 30
0.0
 10
6.5081000000000007
 20
40.194500000000005
 30
0.0
  0
SPLINE
  5
69
100
AcDbEntity
  8
Ebene 1
370
    35
100
AcDbSpline
210
0.0
220
0.0
230
1.0
 70
     0
 71
     3
 72
     8
 73
     4
 74
     0
 42
0.0000000001
 43
0.0000000001
 40
0.0
 40
0.0
 40
0.0
 40
0.0
 40
1.0
 40
1.0
 40
1.0
 40
1.0
 10
13.4686
 20
40.194500000000005
 30
0.0
 10
12.873800000000001
 20
52.0749
 30
0.0
 10
3.3758000000000004
 20
61.572800000000001
 30
0.0
 10
-8.5045000000000002
 20
62.1676
 30
0.0
  0
SPLINE
  5
6A
100
AcDbEntity
  8
Ebene 1
370
    35
100
AcDbSpline
210
0.0
220
0.0
230
1.0
 70
     1
 71
     3
 72
    20
 73
    16
 74
     0
 42
0.0000000001
 43
0.0000000001
 40
0.0
 40
0.0
 40
0.0
 40
0.0
 40
0.25
 40
0.25
 40
0.25
 40
0.25
 40
0.5
 40
0.5
 40
0.5
 40
0.5
 40
0.75
 40
0.75
 40
0.75
 40
0.75
 40
1.0
 40
1.0
 40
1.0
 40
1.0
 10
18.322500000000002
 20
39.036500000000004
 30
0.0
 10
18.322500000000002
 20
54.492200000000004
 30
0.0
 10
5.7932000000000006
 20
67.021600000000007
 30
0.0
 10
-9.6624999999999996
 20
67.021600000000007
 30
0.0
 10
-9.6624999999999996
 20
67.021600000000007
 30
0.0
 10
-25.118100000000002
 20
67.021600000000007
 30
0.0
 10
-37.647400000000005
 20
54.4923
 30
0.0
 10
-37.647500000000001
 20
39.0366
 30
0.0
 10
-37.647500000000001
 20
39.0366
 30
0.0
 10
-37.647500000000001
 20
23.5809
 30
0.0
 10
-25.118300000000001
 20
11.051600000000001
 30
0.0
 10
-9.6626000000000012
 20
11.051500000000001
 30
0.0
 10
-9.6626000000000012
 20
11.051500000000001
 30
0.0
 10
5.7930999999999999
 20
11.051500000000001
 30
0.0
 10
18.322400000000002
 20
23.5807
 30
0.0
 10
18.322500000000002
 20
39.0364
 30
0.0
  0
SPLINE
  5
6B
100
AcDbEntity
  8
Ebene 1
370
    35
100
AcDbSpline
210
0.0
220
0.0
230
1.0
 70
     0
 71
     3
 72
     8
 73
     4
 74
     0
 42
0.0000000001
 43
0.0000000001
 40
0.0
 40
0.0
 40
0.0
 40
0.0
 40
1.0
 40
1.0
 40
1.0
 40
1.0
 10
13.4686
 20
37.878500000000003
 30
0.0
 10
13.4686
 20
37.878500000000003
 30
0.0
 10
13.4686
 20
37.878500000000003
 30
0.0
 10
13.4686
 20
37.878500000000003
 30
0.0
  0
SPLINE
  5
6C
100
AcDbEntity
  8
Ebene 1
370
    35
100
AcDbSpline
210
0.0
220
0.0
230
1.0
 70
     0
 71
     3
 72
     8
 73
     4
 74
     0
 42
0.0000000001
 43
0.0000000001
 40
0.0
 40
0.0
 40
0.0
 40
0.0
 40
1.0
 40
1.0
 40
1.0
 40
1.0
 10
13.4686
 20
37.878500000000003
 30
0.0
 10
13.4686
 20
37.878500000000003
 30
0.0
 10
11.1493
 20
37.878500000000003
 30
0.0
 10
11.1493
 20
37.878500000000003
 30
0.0
  0
SPLINE
  5
6D
100
AcDbEntity
  8
Ebene 1
370
    35
100
AcDbSpline
210
0.0
220
0.0
230
1.0
 70
     0
 71
     3
 72
     8
 73
     4
 74
     0
 42
0.0000000001
 43
0.0000000001
 40
0.0
 40
0.0
 40
0.0
 40
0.0
 40
1.0
 40
1.0
 40
1.0
 40
1.0
 10
-6.1885000000000003
 20
18.484100000000002
 30
0.0
 10
3.4109000000000003
 20
20.1067
 30
0.0
 10
10.608500000000001
 20
28.158100000000001
 30
0.0
 10
11.1493
 20
37.878500000000003
 30
0.0
  0
SPLINE
  5
6E
100
AcDbEntity
  8
Ebene 1
370
    35
100
AcDbSpline
210
0.0
220
0.0
230
1.0
 70
     0
 71
     3
 72
     8
 73
     4
 74
     0
 42
0.0000000001
 43
0.0000000001
 40
0.0
 40
0.0
 40
0.0
 40
0.0
 40
1.0
 40
1.0
 40
1.0
 40
1.0
 10
-6.1885000000000003
 20
20.8371
 30
0.0
 10
-6.1885000000000003
 20
20.8371
 30
0.0
 10
-6.1885000000000003
 20
20.8371
 30
0.0
 10
-6.1885000000000003
 20
20.8371
 30
0.0
  0
SPLINE
  5
6F
100
AcDbEntity
  8
Ebene 1
370
    35
100
AcDbSpline
210
0.0
220
0.0
230
1.0
 70
     0
 71
     3
 72
     8
 73
     4
 74
     0
 42
0.0000000001
 43
0.0000000001
 40
0.0
 40
0.0
 40
0.0
 40
0.0
 40
1.0
 40
1.0
 40
1.0
 40
1.0
 10
-6.1885000000000003
 20
18.484100000000002
 30
0.0
 10
-6.1885000000000003
 20
18.484100000000002
 30
0.0
 10
-6.1885000000000003
 20
20.8371
 30
0.0
 10
-6.1885000000000003
 20
20.8371
 30
0.0
  0
SPLINE
  5
70
100
AcDbEntity
  8
Ebene 1
370
    35
100
AcDbSpline
210
0.0
220
0.0
230
1.0
 70
     0
 71
     3
 72
     8
 73
     4
 74
     0
 42
0.0000000001
 43
0.0000000001
 40
0.0
 40
0.0
 40
0.0
 40
0.0
 40
1.0
 40
1.0
 40
1.0
 40
1.0
 10
-6.1885000000000003
 20
20.8371
 30
0.0
 10
2.1207000000000003
 20
22.423200000000001
 30
0.0
 10
8.3006000000000011
 20
29.4358
 30
0.0
 10
8.8292999999999999
 20
37.878500000000003
 30
0.0
  0
SPLINE
  5
71
100
AcDbEntity
  8
Ebene 1
370
    35
100
AcDbSpline
210
0.0
220
0.0
230
1.0
 70
     0
 71
     3
 72
     8
 73
     4
 74
     0
 42
0.0000000001
 43
0.0000000001
 40
0.0
 40
0.0
 40
0.0
 40
0.0
 40
1.0
 40
1.0
 40
1.0
 40
1.0
 10
8.8292999999999999
 20
37.878500000000003
 30
0.0
 10
8.8292999999999999
 20
37.878500000000003
 30
0.0
 10
8.8292999999999999
 20
37.878500000000003
 30
0.0
 10
8.8292999999999999
 20
37.878500000000003
 30
0.0
  0
SPLINE
  5
72
100
AcDbEntity
  8
Ebene 1
370
    35
100
AcDbSpline
210
0.0
220
0.0
230
1.0
 70
     0
 71
     3
 72
     8
 73
     4
 74
     0
 42
0.0000000001
 43
0.0000000001
 40
0.0
 40
0.0
 40
0.0
 40
0.0
 40
1.0
 40
1.0
 40
1.0
 40
1.0
 10
1.8595000000000002
 20
37.878500000000003
 30
0.0
 10
1.8595000000000002
 20
37.878500000000003
 30
0.0
 10
8.8292999999999999
 20
37.878500000000003
 30
0.0
 10
8.8292999999999999
 20
37.878500000000003
 30
0.0
  0
SPLINE
  5
73
100
AcDbEntity
  8
Ebene 1
370
    35
100
AcDbSpline
210
0.0
220
0.0
230
1.0
 70
     0
 71
     3
 72
     8
 73
     4
 74
     0
 42
0.0000000001
 43
0.0000000001
 40
0.0
 40
0.0
 40
0.0
 40
0.0
 40
1.0
 40
1.0
 40
1.0
 40
1.0
 10
-6.1885000000000003
 20
27.989900000000002
 30
0.0
 10
-1.7694000000000001
 20
29.3797
 30
0.0
 10
1.3962000000000001
 20
33.269300000000001
 30
0.0
 10
1.8595000000000002
 20
37.878500000000003
 30
0.0
  0
SPLINE
  5
74
100
AcDbEntity
  8
Ebene 1
370
    35
100
AcDbSpline
210
0.0
220
0.0
230
1.0
 70
     0
 71
     3
 72
     8
 73
     4
 74
     0
 42
0.0000000001
 43
0.0000000001
 40
0.0
 40
0.0
 40
0.0
 40
0.0
 40
1.0
 40
1.0
 40
1.0
 40
1.0
 10
-6.1885000000000003
 20
30.448600000000003
 30
0.0
 10
-6.1885000000000003
 20
30.448600000000003
 30
0.0
 10
-6.1885000000000003
 20
30.448600000000003
 30
0.0
 10
-6.1885000000000003
 20
30.448600000000003
 30
0.0
  0
SPLINE
  5
75
100
AcDbEntity
  8
Ebene 1
370
    35
100
AcDbSpline
210
0.0
220
0.0
230
1.0
 70
     0
 71
     3
 72
     8
 73
     4
 74
     0
 42
0.0000000001
 43
0.0000000001
 40
0.0
 40
0.0
 40
0.0
 40
0.0
 40
1.0
 40
1.0
 40
1.0
 40
1.0
 10
-6.1885000000000003
 20
27.989900000000002
 30
0.0
 10
-6.1885000000000003
 20
27.989900000000002
 30
0.0
 10
-6.1885000000000003
 20
30.448600000000003
 30
0.0
 10
-6.1885000000000003
 20
30.448600000000003
 30
0.0
  0
SPLINE
  5
76
100
AcDbEntity
  8
Ebene 1
370
    35
100
AcDbSpline
210
0.0
220
0.0
230
1.0
 70
     0
 71
     3
 72
     8
 73
     4
 74
     0
 42
0.0000000001
 43
0.0000000001
 40
0.0
 40
0.0
 40
0.0
 40
0.0
 40
1.0
 40
1.0
 40
1.0
 40
1.0
 10
-6.1885000000000003
 20
30.448600000000003
 30
0.0
 10
-3.0777000000000001
 20
31.707000000000001
 30
0.0
 10
-0.8906000000000001
 20
34.549199999999999
 30
0.0
 10
-0.4711
 20
37.878500000000003
 30
0.0
  0
SPLINE
  5
77
100
AcDbEntity
  8
Ebene 1
370
    35
100
AcDbSpline
210
0.0
220
0.0
230
1.0
 70
     0
 71
     3
 72
     8
 73
     4
 74
     0
 42
0.0000000001
 43
0.0000000001
 40
0.0
 40
0.0
 40
0.0
 40
0.0
 40
1.0
 40
1.0
 40
1.0
 40
1.0
 10
-0.4711
 20
37.878500000000003
 30
0.0
 10
-0.4711
 20
37.878500000000003
 30
0.0
 10
-0.4711
 20
37.878500000000003
 30
0.0
 10
-0.4711
 20
37.878500000000003
 30
0.0
  0
SPLINE
  5
78
100
AcDbEntity
  8
Ebene 1
370
    35
100
AcDbSpline
210
0.0
220
0.0
230
1.0
 70
     0
 71
     3
 72
     8
 73
     4
 74
     0
 42
0.0000000001
 43
0.0000000001
 40
0.0
 40
0.0
 40
0.0
 40
0.0
 40
1.0
 40
1.0
 40
1.0
 40
1.0
 10
-0.4711
 20
37.878500000000003
 30
0.0
 10
-0.4711
 20
37.878500000000003
 30
0.0
 10
-2.8117000000000001
 20
37.878500000000003
 30
0.0
 10
-2.8117000000000001
 20
37.878500000000003
 30
0.0
  0
SPLINE
  5
79
100
AcDbEntity
  8
Ebene 1
370
    35
100
AcDbSpline
210
0.0
220
0.0
230
1.0
 70
     0
 71
     3
 72
     8
 73
     4
 74
     0
 42
0.0000000001
 43
0.0000000001
 40
0.0
 40
0.0
 40
0.0
 40
0.0
 40
1.0
 40
1.0
 40
1.0
 40
1.0
 10
-8.5045000000000002
 20
32.185700000000004
 30
0.0
 10
-5.5888
 20
32.678600000000003
 30
0.0
 10
-3.3045
 20
34.962900000000005
 30
0.0
 10
-2.8117000000000001
 20
37.878500000000003
 30
0.0
  0
SPLINE
  5
7A
100
AcDbEntity
  8
Ebene 1
370
    35
100
AcDbSpline
210
0.0
220
0.0
230
1.0
 70
     0
 71
     3
 72
     8
 73
     4
 74
     0
 42
0.0000000001
 43
0.0000000001
 40
0.0
 40
0.0
 40
0.0
 40
0.0
 40
1.0
 40
1.0
 40
1.0
 40
1.0
 10
-8.5045000000000002
 20
32.185700000000004
 30
0.0
 10
-8.5045000000000002
 20
32.185700000000004
 30
0.0
 10
-8.5045000000000002
 20
32.185700000000004
 30
0.0
 10
-8.5045000000000002
 20
32.185700000000004
 30
0.0
  0
SPLINE
  5
7B
100
AcDbEntity
  8
Ebene 1
370
    35
100
AcDbSpline
210
0.0
220
0.0
230
1.0
 70
     0
 71
     3
 72
     8
 73
     4
 74
     0
 42
0.0000000001
 43
0.0000000001
 40
0.0
 40
0.0
 40
0.0
 40
0.0
 40
1.0
 40
1.0
 40
1.0
 40
1.0
 10
-8.5045000000000002
 20
32.185700000000004
 30
0.0
 10
-8.5045000000000002
 20
32.185700000000004
 30
0.0
 10
-8.5045000000000002
 20
25.1889
 30
0.0
 10
-8.5045000000000002
 20
25.1889
 30
0.0
  0
SPLINE
  5
7C
100
AcDbEntity
  8
Ebene 1
370
    35
100
AcDbSpline
210
0.0
220
0.0
230
1.0
 70
     0
 71
     3
 72
     8
 73
     4
 74
     0
 42
0.0000000001
 43
0.0000000001
 40
0.0
 40
0.0
 40
0.0
 40
0.0
 40
1.0
 40
1.0
 40
1.0
 40
1.0
 10
-8.5045000000000002
 20
25.1889
 30
0.0
 10
-2.6171000000000002
 20
25.6812
 30
0.0
 10
2.3153000000000001
 20
29.842200000000002
 30
0.0
 10
3.7923
 20
35.5625
 30
0.0
  0
SPLINE
  5
7D
100
AcDbEntity
  8
Ebene 1
370
    35
100
AcDbSpline
210
0.0
220
0.0
230
1.0
 70
     0
 71
     3
 72
     8
 73
     4
 74
     0
 42
0.0000000001
 43
0.0000000001
 40
0.0
 40
0.0
 40
0.0
 40
0.0
 40
1.0
 40
1.0
 40
1.0
 40
1.0
 10
6.1729000000000003
 20
35.5625
 30
0.0
 10
6.1729000000000003
 20
35.5625
 30
0.0
 10
6.1729000000000003
 20
35.5625
 30
0.0
 10
6.1729000000000003
 20
35.5625
 30
0.0
  0
SPLINE
  5
7E
100
AcDbEntity
  8
Ebene 1
370
    35
100
AcDbSpline
210
0.0
220
0.0
230
1.0
 70
     0
 71
     3
 72
     8
 73
     4
 74
     0
 42
0.0000000001
 43
0.0000000001
 40
0.0
 40
0.0
 40
0.0
 40
0.0
 40
1.0
 40
1.0
 40
1.0
 40
1.0
 10
3.7923
 20
35.5625
 30
0.0
 10
3.7923
 20
35.5625
 30
0.0
 10
6.1729000000000003
 20
35.5625
 30
0.0
 10
6.1729000000000003
 20
35.5625
 30
0.0
  0
SPLINE
  5
7F
100
AcDbEntity
  8
Ebene 1
370
    35
100
AcDbSpline
210
0.0
220
0.0
230
1.0
 70
     0
 71
     3
 72
     8
 73
     4
 74
     0
 42
0.0000000001
 43
0.0000000001
 40
0.0
 40
0.0
 40
0.0
 40
0.0
 40
1.0
 40
1.0
 40
1.0
 40
1.0
 10
-8.5045000000000002
 20
22.866
 30
0.0
 10
-1.3395000000000001
 20
23.379100000000001
 30
0.0
 10
4.6336000000000004
 20
28.546000000000003
 30
0.0
 10
6.1729000000000003
 20
35.5625
 30
0.0
  0
SPLINE
  5
80
100
AcDbEntity
  8
Ebene 1
370
    35
100
AcDbSpline
210
0.0
220
0.0
230
1.0
 70
     0
 71
     3
 72
     8
 73
     4
 74
     0
 42
0.0000000001
 43
0.0000000001
 40
0.0
 40
0.0
 40
0.0
 40
0.0
 40
1.0
 40
1.0
 40
1.0
 40
1.0
 10
-8.5045000000000002
 20
22.866
 30
0.0
 10
-8.5045000000000002
 20
22.866
 30
0.0
 10
-8.5045000000000002
 20
22.866
 30
0.0
 10
-8.5045000000000002
 20
22.866
 30
0.0
  0
SPLINE
  5
81
100
AcDbEntity
  8
Ebene 1
370
    35
100
AcDbSpline
210
0.0
220
0.0
230
1.0
 70
     0
 71
     3
 72
     8
 73
     4
 74
     0
 42
0.0000000001
 43
0.0000000001
 40
0.0
 40
0.0
 40
0.0
 40
0.0
 40
1.0
 40
1.0
 40
1.0
 40
1.0
 10
-8.5045000000000002
 20
15.9055
 30
0.0
 10
-8.5045000000000002
 20
15.9055
 30
0.0
 10
-8.5045000000000002
 20
22.866
 30
0.0
 10
-8.5045000000000002
 20
22.866
 30
0.0
  0
SPLINE
  5
82
100
AcDbEntity
  8
Ebene 1
370
    35
100
AcDbSpline
210
0.0
220
0.0
230
1.0
 70
     0
 71
     3
 72
     8
 73
     4
 74
     0
 42
0.0000000001
 43
0.0000000001
 40
0.0
 40
0.0
 40
0.0
 40
0.0
 40
1.0
 40
1.0
 40
1.0
 40
1.0
 10
-8.5045000000000002
 20
15.9055
 30
0.0
 10
3.3758000000000004
 20
16.500299999999999
 30
0.0
 10
12.873800000000001
 20
25.998200000000001
 30
0.0
 10
13.4686
 20
37.878500000000003
 30
0.0
  0
SPLINE
  5
83
100
AcDbEntity
  8
Ebene 1
370
    35
100
AcDbSpline
210
0.0
220
0.0
230
1.0
 70
     0
 71
     3
 72
     8
 73
     4
 74
     0
 42
0.0000000001
 43
0.0000000001
 40
0.0
 40
0.0
 40
0.0
 40
0.0
 40
1.0
 40
1.0
 40
1.0
 40
1.0
 10
-32.793500000000002
 20
40.194500000000005
 30
0.0
 10
-32.793500000000002
 20
40.194500000000005
 30
0.0
 10
-30.474300000000003
 20
40.194500000000005
 30
0.0
 10
-30.474300000000003
 20
40.194500000000005
 30
0.0
  0
SPLINE
  5
84
100
AcDbEntity
  8
Ebene 1
370
    35
100
AcDbSpline
210
0.0
220
0.0
230
1.0
 70
     0
 71
     3
 72
     8
 73
     4
 74
     0
 42
0.0000000001
 43
0.0000000001
 40
0.0
 40
0.0
 40
0.0
 40
0.0
 40
1.0
 40
1.0
 40
1.0
 40
1.0
 10
-13.1365
 20
59.589000000000006
 30
0.0
 10
-22.735800000000001
 20
57.9664
 30
0.0
 10
-29.933400000000002
 20
49.914999999999999
 30
0.0
 10
-30.474300000000003
 20
40.194500000000005
 30
0.0
  0
SPLINE
  5
85
100
AcDbEntity
  8
Ebene 1
370
    35
100
AcDbSpline
210
0.0
220
0.0
230
1.0
 70
     0
 71
     3
 72
     8
 73
     4
 74
     0
 42
0.0000000001
 43
0.0000000001
 40
0.0
 40
0.0
 40
0.0
 40
0.0
 40
1.0
 40
1.0
 40
1.0
 40
1.0
 10
-13.1365
 20
59.589000000000006
 30
0.0
 10
-13.1365
 20
59.589000000000006
 30
0.0
 10
-13.1365
 20
59.589000000000006
 30
0.0
 10
-13.1365
 20
59.589000000000006
 30
0.0
  0
SPLINE
  5
86
100
AcDbEntity
  8
Ebene 1
370
    35
100
AcDbSpline
210
0.0
220
0.0
230
1.0
 70
     0
 71
     3
 72
     8
 73
     4
 74
     0
 42
0.0000000001
 43
0.0000000001
 40
0.0
 40
0.0
 40
0.0
 40
0.0
 40
1.0
 40
1.0
 40
1.0
 40
1.0
 10
-13.1365
 20
59.589000000000006
 30
0.0
 10
-13.1365
 20
59.589000000000006
 30
0.0
 10
-13.1365
 20
57.235900000000001
 30
0.0
 10
-13.1365
 20
57.235900000000001
 30
0.0
  0
SPLINE
  5
87
100
AcDbEntity
  8
Ebene 1
370
    35
100
AcDbSpline
210
0.0
220
0.0
230
1.0
 70
     0
 71
     3
 72
     8
 73
     4
 74
     0
 42
0.0000000001
 43
0.0000000001
 40
0.0
 40
0.0
 40
0.0
 40
0.0
 40
1.0
 40
1.0
 40
1.0
 40
1.0
 10
-13.1365
 20
57.235900000000001
 30
0.0
 10
-21.445700000000002
 20
55.649800000000006
 30
0.0
 10
-27.625500000000002
 20
48.637300000000003
 30
0.0
 10
-28.154200000000003
 20
40.194500000000005
 30
0.0
  0
SPLINE
  5
88
100
AcDbEntity
  8
Ebene 1
370
    35
100
AcDbSpline
210
0.0
220
0.0
230
1.0
 70
     0
 71
     3
 72
     8
 73
     4
 74
     0
 42
0.0000000001
 43
0.0000000001
 40
0.0
 40
0.0
 40
0.0
 40
0.0
 40
1.0
 40
1.0
 40
1.0
 40
1.0
 10
-21.1845
 20
40.194500000000005
 30
0.0
 10
-21.1845
 20
40.194500000000005
 30
0.0
 10
-21.1845
 20
40.194500000000005
 30
0.0
 10
-21.1845
 20
40.194500000000005
 30
0.0
  0
SPLINE
  5
89
100
AcDbEntity
  8
Ebene 1
370
    35
100
AcDbSpline
210
0.0
220
0.0
230
1.0
 70
     0
 71
     3
 72
     8
 73
     4
 74
     0
 42
0.0000000001
 43
0.0000000001
 40
0.0
 40
0.0
 40
0.0
 40
0.0
 40
1.0
 40
1.0
 40
1.0
 40
1.0
 10
-21.1845
 20
40.194500000000005
 30
0.0
 10
-21.1845
 20
40.194500000000005
 30
0.0
 10
-28.154200000000003
 20
40.194500000000005
 30
0.0
 10
-28.154200000000003
 20
40.194500000000005
 30
0.0
  0
SPLINE
  5
8A
100
AcDbEntity
  8
Ebene 1
370
    35
100
AcDbSpline
210
0.0
220
0.0
230
1.0
 70
     0
 71
     3
 72
     8
 73
     4
 74
     0
 42
0.0000000001
 43
0.0000000001
 40
0.0
 40
0.0
 40
0.0
 40
0.0
 40
1.0
 40
1.0
 40
1.0
 40
1.0
 10
-13.1365
 20
50.083200000000005
 30
0.0
 10
-17.555600000000002
 20
48.693400000000004
 30
0.0
 10
-20.7212
 20
44.803800000000003
 30
0.0
 10
-21.1845
 20
40.194500000000005
 30
0.0
  0
SPLINE
  5
8B
100
AcDbEntity
  8
Ebene 1
370
    35
100
AcDbSpline
210
0.0
220
0.0
230
1.0
 70
     0
 71
     3
 72
     8
 73
     4
 74
     0
 42
0.0000000001
 43
0.0000000001
 40
0.0
 40
0.0
 40
0.0
 40
0.0
 40
1.0
 40
1.0
 40
1.0
 40
1.0
 10
-13.1365
 20
50.083200000000005
 30
0.0
 10
-13.1365
 20
50.083200000000005
 30
0.0
 10
-13.1365
 20
50.083200000000005
 30
0.0
 10
-13.1365
 20
50.083200000000005
 30
0.0
  0
SPLINE
  5
8C
100
AcDbEntity
  8
Ebene 1
370
    35
100
AcDbSpline
210
0.0
220
0.0
230
1.0
 70
     0
 71
     3
 72
     8
 73
     4
 74
     0
 42
0.0000000001
 43
0.0000000001
 40
0.0
 40
0.0
 40
0.0
 40
0.0
 40
1.0
 40
1.0
 40
1.0
 40
1.0
 10
-13.1365
 20
50.083200000000005
 30
0.0
 10
-13.1365
 20
50.083200000000005
 30
0.0
 10
-13.1365
 20
47.624500000000005
 30
0.0
 10
-13.1365
 20
47.624500000000005
 30
0.0
  0
SPLINE
  5
8D
100
AcDbEntity
  8
Ebene 1
370
    35
100
AcDbSpline
210
0.0
220
0.0
230
1.0
 70
     0
 71
     3
 72
     8
 73
     4
 74
     0
 42
0.0000000001
 43
0.0000000001
 40
0.0
 40
0.0
 40
0.0
 40
0.0
 40
1.0
 40
1.0
 40
1.0
 40
1.0
 10
-13.1365
 20
47.624500000000005
 30
0.0
 10
-16.247299999999999
 20
46.366100000000003
 30
0.0
 10
-18.4344
 20
43.523900000000005
 30
0.0
 10
-18.8538
 20
40.194500000000005
 30
0.0
  0
SPLINE
  5
8E
100
AcDbEntity
  8
Ebene 1
370
    35
100
AcDbSpline
210
0.0
220
0.0
230
1.0
 70
     0
 71
     3
 72
     8
 73
     4
 74
     0
 42
0.0000000001
 43
0.0000000001
 40
0.0
 40
0.0
 40
0.0
 40
0.0
 40
1.0
 40
1.0
 40
1.0
 40
1.0
 10
-16.513300000000001
 20
40.194500000000005
 30
0.0
 10
-16.513300000000001
 20
40.194500000000005
 30
0.0
 10
-16.513300000000001
 20
40.194500000000005
 30
0.0
 10
-16.513300000000001
 20
40.194500000000005
 30
0.0
  0
SPLINE
  5
8F
100
AcDbEntity
  8
Ebene 1
370
    35
100
AcDbSpline
210
0.0
220
0.0
230
1.0
 70
     0
 71
     3
 72
     8
 73
     4
 74
     0
 42
0.0000000001
 43
0.0000000001
 40
0.0
 40
0.0
 40
0.0
 40
0.0
 40
1.0
 40
1.0
 40
1.0
 40
1.0
 10
-18.8538
 20
40.194500000000005
 30
0.0
 10
-18.8538
 20
40.194500000000005
 30
0.0
 10
-16.513300000000001
 20
40.194500000000005
 30
0.0
 10
-16.513300000000001
 20
40.194500000000005
 30
0.0
  0
SPLINE
  5
90
100
AcDbEntity
  8
Ebene 1
370
    35
100
AcDbSpline
210
0.0
220
0.0
230
1.0
 70
     0
 71
     3
 72
     8
 73
     4
 74
     0
 42
0.0000000001
 43
0.0000000001
 40
0.0
 40
0.0
 40
0.0
 40
0.0
 40
1.0
 40
1.0
 40
1.0
 40
1.0
 10
-10.820500000000001
 20
45.887300000000003
 30
0.0
 10
-13.7362
 20
45.394500000000001
 30
0.0
 10
-16.020500000000002
 20
43.110199999999999
 30
0.0
 10
-16.513300000000001
 20
40.194500000000005
 30
0.0
  0
SPLINE
  5
91
100
AcDbEntity
  8
Ebene 1
370
    35
100
AcDbSpline
210
0.0
220
0.0
230
1.0
 70
     0
 71
     3
 72
     8
 73
     4
 74
     0
 42
0.0000000001
 43
0.0000000001
 40
0.0
 40
0.0
 40
0.0
 40
0.0
 40
1.0
 40
1.0
 40
1.0
 40
1.0
 10
-10.820500000000001
 20
52.8842
 30
0.0
 10
-10.820500000000001
 20
52.8842
 30
0.0
 10
-10.820500000000001
 20
52.8842
 30
0.0
 10
-10.820500000000001
 20
52.8842
 30
0.0
  0
SPLINE
  5
92
100
AcDbEntity
  8
Ebene 1
370
    35
100
AcDbSpline
210
0.0
220
0.0
230
1.0
 70
     0
 71
     3
 72
     8
 73
     4
 74
     0
 42
0.0000000001
 43
0.0000000001
 40
0.0
 40
0.0
 40
0.0
 40
0.0
 40
1.0
 40
1.0
 40
1.0
 40
1.0
 10
-10.820500000000001
 20
45.887300000000003
 30
0.0
 10
-10.820500000000001
 20
45.887300000000003
 30
0.0
 10
-10.820500000000001
 20
52.8842
 30
0.0
 10
-10.820500000000001
 20
52.8842
 30
0.0
  0
SPLINE
  5
93
100
AcDbEntity
  8
Ebene 1
370
    35
100
AcDbSpline
210
0.0
220
0.0
230
1.0
 70
     0
 71
     3
 72
     8
 73
     4
 74
     0
 42
0.0000000001
 43
0.0000000001
 40
0.0
 40
0.0
 40
0.0
 40
0.0
 40
1.0
 40
1.0
 40
1.0
 40
1.0
 10
-10.820500000000001
 20
52.8842
 30
0.0
 10
-16.707900000000002
 20
52.3919
 30
0.0
 10
-21.6402
 20
48.230800000000002
 30
0.0
 10
-23.1172
 20
42.5105
 30
0.0
  0
SPLINE
  5
94
100
AcDbEntity
  8
Ebene 1
370
    35
100
AcDbSpline
210
0.0
220
0.0
230
1.0
 70
     0
 71
     3
 72
     8
 73
     4
 74
     0
 42
0.0000000001
 43
0.0000000001
 40
0.0
 40
0.0
 40
0.0
 40
0.0
 40
1.0
 40
1.0
 40
1.0
 40
1.0
 10
-23.1172
 20
42.5105
 30
0.0
 10
-23.1172
 20
42.5105
 30
0.0
 10
-25.497800000000002
 20
42.5105
 30
0.0
 10
-25.497800000000002
 20
42.5105
 30
0.0
  0
SPLINE
  5
95
100
AcDbEntity
  8
Ebene 1
370
    35
100
AcDbSpline
210
0.0
220
0.0
230
1.0
 70
     0
 71
     3
 72
     8
 73
     4
 74
     0
 42
0.0000000001
 43
0.0000000001
 40
0.0
 40
0.0
 40
0.0
 40
0.0
 40
1.0
 40
1.0
 40
1.0
 40
1.0
 10
-10.820500000000001
 20
55.207100000000004
 30
0.0
 10
-17.985500000000002
 20
54.694100000000006
 30
0.0
 10
-23.958600000000001
 20
49.527100000000004
 30
0.0
 10
-25.497800000000002
 20
42.5105
 30
0.0
  0
SPLINE
  5
96
100
AcDbEntity
  8
Ebene 1
370
    35
100
AcDbSpline
210
0.0
220
0.0
230
1.0
 70
     0
 71
     3
 72
     8
 73
     4
 74
     0
 42
0.0000000001
 43
0.0000000001
 40
0.0
 40
0.0
 40
0.0
 40
0.0
 40
1.0
 40
1.0
 40
1.0
 40
1.0
 10
-10.820500000000001
 20
62.1676
 30
0.0
 10
-10.820500000000001
 20
62.1676
 30
0.0
 10
-10.820500000000001
 20
62.1676
 30
0.0
 10
-10.820500000000001
 20
62.1676
 30
0.0
  0
SPLINE
  5
97
100
AcDbEntity
  8
Ebene 1
370
    35
100
AcDbSpline
210
0.0
220
0.0
230
1.0
 70
     0
 71
     3
 72
     8
 73
     4
 74
     0
 42
0.0000000001
 43
0.0000000001
 40
0.0
 40
0.0
 40
0.0
 40
0.0
 40
1.0
 40
1.0
 40
1.0
 40
1.0
 10
-10.820500000000001
 20
62.1676
 30
0.0
 10
-10.820500000000001
 20
62.1676
 30
0.0
 10
-10.820500000000001
 20
55.207100000000004
 30
0.0
 10
-10.820500000000001
 20
55.207100000000004
 30
0.0
  0
SPLINE
  5
98
100
AcDbEntity
  8
Ebene 1
370
    35
100
AcDbSpline
210
0.0
220
0.0
230
1.0
 70
     0
 71
     3
 72
     8
 73
     4
 74
     0
 42
0.0000000001
 43
0.0000000001
 40
0.0
 40
0.0
 40
0.0
 40
0.0
 40
1.0
 40
1.0
 40
1.0
 40
1.0
 10
-10.820500000000001
 20
62.1676
 30
0.0
 10
-22.700700000000001
 20
61.572800000000001
 30
0.0
 10
-32.198700000000002
 20
52.0749
 30
0.0
 10
-32.793500000000002
 20
40.194500000000005
 30
0.0
  0
ENDSEC
  0
SECTION
  2
OBJECTS
  0
DICTIONARY
  5
19
100
AcDbDictionary
280
     0
281
     1
  3
ACAD_GROUP
350
1A
  3
ACAD_MLINESTYLE
350
1B
  3
ACAD_LAYOUT
350
1E
  3
ACAD_PLOTSETTINGS
350
22
  3
ACAD_PLOTSTYLENAME
350
1F
  3
ACAD_WIPEOUT_VARS
350
23
  0
DICTIONARY
  5
1A
102
{ACAD_REACTORS
330
19
102
}
100
AcDbDictionary
280
     0
281
     1
  0
DICTIONARY
  5
1B
102
{ACAD_REACTORS
330
19
102
}
100
AcDbDictionary
280
     0
281
     1
  3
Standard
350
1C
  0
MLINESTYLE
  5
1C
102
{ACAD_REACTORS
330
1B
102
}
100
AcDbMlineStyle
  2
Standard
 70
     0
  3

 62
     0
 51
90.0
 52
90.0
 71
     2
 49
0.5
 62
   256
  6
BYLAYER
 49
-0.5
 62
   256
  6
BYLAYER
  0
ACDBDICTIONARYWDFLT
  5
1F
102
{ACAD_REACTORS
330
19
102
}
100
AcDbDictionary
281
     1
  3
Normal
350
1D
100
AcDbDictionaryWithDefault
340
1D
  0
ACDBPLACEHOLDER
  5
1D
102
{ACAD_REACTORS
330
1F
102
}
  0
LAYOUT
  5
20
102
{ACAD_REACTORS
330
1E
102
}
100
AcDbPlotSettings
  1

  2

  4

  6

 40
0.0
 41
0.0
 42
0.0
 43
0.0
 44
0.0
 45
0.0
 46
0.0
 47
0.0
 48
0.0
 49
0.0
140
0.0
141
0.0
142
1.0
143
1.0
 70
  1024
 72
     0
 73
     0
 74
     0
  7

 75
     0
147
1.0
148
0.0
149
0.0
100
AcDbLayout
  1
Model
 70
     0
 71
     0
 10
0.0
 20
0.0
 11
0.0
 21
0.0
 12
0.0
 22
0.0
 32
0.0
 14
0.0
 24
0.0
 34
0.0
 15
0.0
 25
0.0
 35
0.0
146
0.0
 13
0.0
 23
0.0
 33
0.0
 16
0.0
 26
0.0
 36
0.0
 17
0.0
 27
0.0
 37
0.0
 76
     0
330
A
331
0
345
0
346
0
  0
LAYOUT
  5
21
102
{ACAD_REACTORS
330
1E
102
}
100
AcDbPlotSettings
  1

  2

  4

  6

 40
0.0
 41
0.0
 42
0.0
 43
0.0
 44
0.0
 45
0.0
 46
0.0
 47
0.0
 48
0.0
 49
0.0
140
0.0
141
0.0
142
1.0
143
1.0
 70
     0
 72
     0
 73
     0
 74
     0
  7

 75
     0
147
1.0
148
0.0
149
0.0
100
AcDbLayout
  1
Layout1
 70
     0
 71
     0
 10
0.0
 20
0.0
 11
0.0
 21
0.0
 12
0.0
 22
0.0
 32
0.0
 14
0.0
 24
0.0
 34
0.0
 15
0.0
 25
0.0
 35
0.0
146
0.0
 13
0.0
 23
0.0
 33
0.0
 16
0.0
 26
0.0
 36
0.0
 17
0.0
 27
0.0
 37
0.0
 76
     0
330
B
331
0
345
0
346
0
  0
DICTIONARY
  5
1E
102
{ACAD_REACTORS
330
19
102
}
100
AcDbDictionary
280
     0
281
     1
  3
Layout1
350
21
  3
Model
350
20
  0
DICTIONARY
  5
22
102
{ACAD_REACTORS
330
19
102
}
100
AcDbDictionary
280
     0
281
     1
  0
WIPEOUTVARIABLES
  5
23
100
AcDbWipeoutVariables
 70
     1
  0
ENDSEC
  0
EOF
