  0
SECTION
  2
HEADER
  9
$ACADVER
  1
AC1018
  9
$ACADMAINTVER
 70
     0
  9
$DWGCODEPAGE
  3
ANSI_1252
  9
$INSBASE
 10
0.0
 20
0.0
 30
0.0
  9
$EXTMIN
 10
-45.766
 20
-7.1745
 30
0.0
  9
$EXTMAX
 10
-1.0076
 20
58.4465
 30
0.0
  9
$LIMMIN
 10
0.0
 20
0.0
  9
$LIMMAX
 10
12.0
 20
9.0
  9
$ORTHOMODE
 70
     0
  9
$REGENMODE
 70
     1
  9
$FILLMODE
 70
     1
  9
$QTEXTMODE
 70
     0
  9
$MIRRTEXT
 70
     1
  9
$LTSCALE
 40
1.0
  9
$ATTMODE
 70
     1
  9
$TEXTSIZE
 40
0.2
  9
$TRACEWID
 40
0.05
  9
$TEXTSTYLE
  7
Standard
  9
$CLAYER
  8
0
  9
$CELTYPE
  6
ByLayer
  9
$CECOLOR
 62
   256
  9
$CELTSCALE
 40
1.0
  9
$DISPSILH
 70
     0
  9
$DIMSCALE
 40
1.0
  9
$DIMASZ
 40
0.18
  9
$DIMEXO
 40
0.0625
  9
$DIMDLI
 40
0.38
  9
$DIMRND
 40
0.0
  9
$DIMDLE
 40
0.0
  9
$DIMEXE
 40
0.18
  9
$DIMTP
 40
0.0
  9
$DIMTM
 40
0.0
  9
$DIMTXT
 40
0.18
  9
$DIMCEN
 40
0.09
  9
$DIMTSZ
 40
0.0
  9
$DIMTOL
 70
     0
  9
$DIMLIM
 70
     0
  9
$DIMTIH
 70
     1
  9
$DIMTOH
 70
     1
  9
$DIMSE1
 70
     0
  9
$DIMSE2
 70
     0
  9
$DIMTAD
 70
     0
  9
$DIMZIN
 70
     0
  9
$DIMBLK
  1

  9
$DIMASO
 70
     1
  9
$DIMSHO
 70
     1
  9
$DIMPOST
  1

  9
$DIMAPOST
  1

  9
$DIMALT
 70
     0
  9
$DIMALTD
 70
     2
  9
$DIMALTF
 40
25.4
  9
$DIMLFAC
 40
1.0
  9
$DIMTOFL
 70
     0
  9
$DIMTVP
 40
0.0
  9
$DIMTIX
 70
     0
  9
$DIMSOXD
 70
     0
  9
$DIMSAH
 70
     0
  9
$DIMBLK1
  1

  9
$DIMBLK2
  1

  9
$DIMSTYLE
  2
Standard
  9
$DIMCLRD
 70
     0
  9
$DIMCLRE
 70
     0
  9
$DIMCLRT
 70
     0
  9
$DIMTFAC
 40
1.0
  9
$DIMGAP
 40
0.09
  9
$DIMJUST
 70
     0
  9
$DIMSD1
 70
     0
  9
$DIMSD2
 70
     0
  9
$DIMTOLJ
 70
     1
  9
$DIMTZIN
 70
     0
  9
$DIMALTZ
 70
     0
  9
$DIMALTTZ
 70
     0
  9
$DIMUPT
 70
     0
  9
$DIMDEC
 70
     4
  9
$DIMTDEC
 70
     4
  9
$DIMALTU
 70
     2
  9
$DIMALTTD
 70
     2
  9
$DIMTXSTY
  7
Standard
  9
$DIMAUNIT
 70
     0
  9
$DIMADEC
 70
     0
  9
$DIMALTRND
 40
0.0
  9
$DIMAZIN
 70
     0
  9
$DIMDSEP
 70
    46
  9
$DIMATFIT
 70
     3
  9
$DIMFRAC
 70
     0
  9
$DIMLDRBLK
  1

  9
$DIMLUNIT
 70
     2
  9
$DIMLWD
 70
    -2
  9
$DIMLWE
 70
    -2
  9
$DIMTMOVE
 70
     0
  9
$LUNITS
 70
     2
  9
$LUPREC
 70
     4
  9
$SKETCHINC
 40
0.1
  9
$FILLETRAD
 40
0.5
  9
$AUNITS
 70
     0
  9
$AUPREC
 70
     0
  9
$MENU
  1
.
  9
$ELEVATION
 40
0.0
  9
$PELEVATION
 40
0.0
  9
$THICKNESS
 40
0.0
  9
$LIMCHECK
 70
     0
  9
$CHAMFERA
 40
0.5
  9
$CHAMFERB
 40
0.5
  9
$CHAMFERC
 40
1.0
  9
$CHAMFERD
 40
0.0
  9
$SKPOLY
 70
     0
  9
$TDCREATE
 40
2455537.266510278
  9
$TDUCREATE
 40
2455537.224843611
  9
$TDUPDATE
 40
2455537.266510289
  9
$TDUUPDATE
 40
2455537.224843623
  9
$TDINDWG
 40
0.0000000116
  9
$TDUSRTIMER
 40
0.0000000116
  9
$USRTIMER
 70
     1
  9
$ANGBASE
 50
0.0
  9
$ANGDIR
 70
     0
  9
$PDMODE
 70
     0
  9
$PDSIZE
 40
0.0
  9
$PLINEWID
 40
0.0
  9
$SPLFRAME
 70
     0
  9
$SPLINETYPE
 70
     6
  9
$SPLINESEGS
 70
     8
  9
$HANDSEED
  5
151
  9
$SURFTAB1
 70
     6
  9
$SURFTAB2
 70
     6
  9
$SURFTYPE
 70
     6
  9
$SURFU
 70
     6
  9
$SURFV
 70
     6
  9
$UCSBASE
  2

  9
$UCSNAME
  2

  9
$UCSORG
 10
0.0
 20
0.0
 30
0.0
  9
$UCSXDIR
 10
1.0
 20
0.0
 30
0.0
  9
$UCSYDIR
 10
0.0
 20
1.0
 30
0.0
  9
$UCSORTHOREF
  2

  9
$UCSORTHOVIEW
 70
     0
  9
$UCSORGTOP
 10
0.0
 20
0.0
 30
0.0
  9
$UCSORGBOTTOM
 10
0.0
 20
0.0
 30
0.0
  9
$UCSORGLEFT
 10
0.0
 20
0.0
 30
0.0
  9
$UCSORGRIGHT
 10
0.0
 20
0.0
 30
0.0
  9
$UCSORGFRONT
 10
0.0
 20
0.0
 30
0.0
  9
$UCSORGBACK
 10
0.0
 20
0.0
 30
0.0
  9
$PUCSBASE
  2

  9
$PUCSNAME
  2

  9
$PUCSORG
 10
0.0
 20
0.0
 30
0.0
  9
$PUCSXDIR
 10
1.0
 20
0.0
 30
0.0
  9
$PUCSYDIR
 10
0.0
 20
1.0
 30
0.0
  9
$PUCSORTHOREF
  2

  9
$PUCSORTHOVIEW
 70
     0
  9
$PUCSORGTOP
 10
0.0
 20
0.0
 30
0.0
  9
$PUCSORGBOTTOM
 10
0.0
 20
0.0
 30
0.0
  9
$PUCSORGLEFT
 10
0.0
 20
0.0
 30
0.0
  9
$PUCSORGRIGHT
 10
0.0
 20
0.0
 30
0.0
  9
$PUCSORGFRONT
 10
0.0
 20
0.0
 30
0.0
  9
$PUCSORGBACK
 10
0.0
 20
0.0
 30
0.0
  9
$USERI1
 70
     0
  9
$USERI2
 70
     0
  9
$USERI3
 70
     0
  9
$USERI4
 70
     0
  9
$USERI5
 70
     0
  9
$USERR1
 40
0.0
  9
$USERR2
 40
0.0
  9
$USERR3
 40
0.0
  9
$USERR4
 40
0.0
  9
$USERR5
 40
0.0
  9
$WORLDVIEW
 70
     1
  9
$SHADEDGE
 70
     3
  9
$SHADEDIF
 70
    70
  9
$TILEMODE
 70
     1
  9
$MAXACTVP
 70
    64
  9
$PINSBASE
 10
0.0
 20
0.0
 30
0.0
  9
$PLIMCHECK
 70
     0
  9
$PEXTMIN
 10
1.000000000000000E+20
 20
1.000000000000000E+20
 30
1.000000000000000E+20
  9
$PEXTMAX
 10
-1.000000000000000E+20
 20
-1.000000000000000E+20
 30
-1.000000000000000E+20
  9
$PLIMMIN
 10
0.0
 20
0.0
  9
$PLIMMAX
 10
12.0
 20
9.0
  9
$UNITMODE
 70
     0
  9
$VISRETAIN
 70
     1
  9
$PLINEGEN
 70
     0
  9
$PSLTSCALE
 70
     1
  9
$TREEDEPTH
 70
  3020
  9
$CMLSTYLE
  2
Standard
  9
$CMLJUST
 70
     0
  9
$CMLSCALE
 40
1.0
  9
$PROXYGRAPHICS
 70
     1
  9
$MEASUREMENT
 70
     0
  9
$CELWEIGHT
370
    -1
  9
$ENDCAPS
280
     0
  9
$JOINSTYLE
280
     0
  9
$LWDISPLAY
290
     0
  9
$INSUNITS
 70
     4
  9
$HYPERLINKBASE
  1

  9
$STYLESHEET
  1

  9
$XEDIT
290
     1
  9
$CEPSNTYPE
380
     0
  9
$PSTYLEMODE
290
     0
  9
$FINGERPRINTGUID
  2
{FAEB1C30-E019-11D5-929B-00C0DF256EC4}
  9
$VERSIONGUID
  2
{FAEB1C32-E019-11D5-929B-00C0DF256EC4}
  9
$EXTNAMES
290
     1
  9
$PSVPSCALE
 40
0.0
  9
$OLESTARTUP
290
     0
  9
$SORTENTS
280
   127
  9
$INDEXCTL
280
     0
  9
$HIDETEXT
280
     1
  9
$XCLIPFRAME
290
     0
  9
$HALOGAP
280
     0
  9
$OBSCOLOR
 70
   257
  9
$OBSLTYPE
280
     0
  9
$INTERSECTIONDISPLAY
280
     0
  9
$INTERSECTIONCOLOR
 70
   257
  9
$DIMASSOC
280
     2
  9
$PROJECTNAME
  1

  0
ENDSEC
  0
SECTION
  2
CLASSES
  0
CLASS
  1
ACDBDICTIONARYWDFLT
  2
AcDbDictionaryWithDefault
  3
ObjectDBX Classes
 90
        0
 91
        1
280
     0
281
     0
  0
ENDSEC
  0
SECTION
  2
TABLES
  0
TABLE
  2
VPORT
  5
8
330
0
100
AcDbSymbolTable
 70
     2
  0
VPORT
  5
29
330
8
100
AcDbSymbolTableRecord
100
AcDbViewportTableRecord
  2
*Active
 70
     0
 10
0.0
 20
0.0
 11
1.0
 21
1.0
 12
10.42990654205607
 22
4.5
 13
0.0
 23
0.0
 14
0.5
 24
0.5
 15
0.5
 25
0.5
 16
0.0
 26
0.0
 36
1.0
 17
0.0
 27
0.0
 37
0.0
 40
9.0
 41
1.972972972850329
 42
50.0
 43
0.0
 44
0.0
 50
0.0
 51
0.0
 71
     0
 72
   100
 73
     1
 74
     3
 75
     0
 76
     0
 77
     0
 78
     0
281
     0
 65
     1
110
0.0
120
0.0
130
0.0
111
1.0
121
0.0
131
0.0
112
0.0
122
1.0
132
0.0
 79
     0
146
0.0
  0
ENDTAB
  0
TABLE
  2
LTYPE
  5
5
330
0
100
AcDbSymbolTable
 70
     1
  0
LTYPE
  5
14
330
5
100
AcDbSymbolTableRecord
100
AcDbLinetypeTableRecord
  2
ByBlock
 70
     0
  3

 72
    65
 73
     0
 40
0.0
  0
LTYPE
  5
15
330
5
100
AcDbSymbolTableRecord
100
AcDbLinetypeTableRecord
  2
ByLayer
 70
     0
  3

 72
    65
 73
     0
 40
0.0
  0
LTYPE
  5
16
330
5
100
AcDbSymbolTableRecord
100
AcDbLinetypeTableRecord
  2
Continuous
 70
     0
  3
Solid line
 72
    65
 73
     0
 40
0.0
  0
ENDTAB
  0
TABLE
  2
LAYER
  5
2
330
0
100
AcDbSymbolTable
 70
     2
  0
LAYER
  5
10
330
2
100
AcDbSymbolTableRecord
100
AcDbLayerTableRecord
  2
0
 70
     0
 62
     7
  6
Continuous
370
    -3
390
F
  0
LAYER
  5
2B
330
2
100
AcDbSymbolTableRecord
100
AcDbLayerTableRecord
  2
Ebene 1
 70
     0
 62
     7
  6
Continuous
370
    -3
390
F
  0
ENDTAB
  0
TABLE
  2
STYLE
  5
3
330
0
100
AcDbSymbolTable
 70
     1
  0
STYLE
  5
11
330
3
100
AcDbSymbolTableRecord
100
AcDbTextStyleTableRecord
  2
Standard
 70
     0
 40
0.0
 41
1.0
 50
0.0
 71
     0
 42
0.2
  3
txt
  4

  0
ENDTAB
  0
TABLE
  2
VIEW
  5
6
330
0
100
AcDbSymbolTable
 70
     0
  0
ENDTAB
  0
TABLE
  2
UCS
  5
7
330
0
100
AcDbSymbolTable
 70
     0
  0
ENDTAB
  0
TABLE
  2
APPID
  5
9
330
0
100
AcDbSymbolTable
 70
     2
  0
APPID
  5
12
330
9
100
AcDbSymbolTableRecord
100
AcDbRegAppTableRecord
  2
ACAD
 70
     0
  0
APPID
  5
2A
330
9
100
AcDbSymbolTableRecord
100
AcDbRegAppTableRecord
  2
ODA
 70
     0
  0
ENDTAB
  0
TABLE
  2
DIMSTYLE
  5
A
330
0
100
AcDbSymbolTable
 70
     1
100
AcDbDimStyleTable
  0
DIMSTYLE
105
27
330
A
100
AcDbSymbolTableRecord
100
AcDbDimStyleTableRecord
  2
Standard
 70
     0
340
11
  0
ENDTAB
  0
TABLE
  2
BLOCK_RECORD
  5
1
330
0
100
AcDbSymbolTable
 70
     1
  0
BLOCK_RECORD
  5
1F
330
1
100
AcDbSymbolTableRecord
100
AcDbBlockTableRecord
  2
*Model_Space
340
22
  0
BLOCK_RECORD
  5
1B
330
1
100
AcDbSymbolTableRecord
100
AcDbBlockTableRecord
  2
*Paper_Space
340
1E
  0
BLOCK_RECORD
  5
23
330
1
100
AcDbSymbolTableRecord
100
AcDbBlockTableRecord
  2
*Paper_Space0
340
26
  0
ENDTAB
  0
ENDSEC
  0
SECTION
  2
BLOCKS
  0
BLOCK
  5
20
330
1F
100
AcDbEntity
  8
0
100
AcDbBlockBegin
  2
*Model_Space
 70
     0
 71
     0
 10
0.0
 20
0.0
 30
0.0
  3
*Model_Space
  1

  0
ENDBLK
  5
21
330
1F
100
AcDbEntity
  8
0
100
AcDbBlockEnd
  0
BLOCK
  5
1C
330
1B
100
AcDbEntity
 67
     1
  8
0
100
AcDbBlockBegin
  2
*Paper_Space
 70
     0
 71
     0
 10
0.0
 20
0.0
 30
0.0
  3
*Paper_Space
  1

  0
ENDBLK
  5
1D
330
1B
100
AcDbEntity
 67
     1
  8
0
100
AcDbBlockEnd
  0
BLOCK
  5
24
330
23
100
AcDbEntity
  8
0
100
AcDbBlockBegin
  2
*Paper_Space0
 70
     0
 71
     0
 10
0.0
 20
0.0
 30
0.0
  3
*Paper_Space0
  1

  0
ENDBLK
  5
25
330
23
100
AcDbEntity
  8
0
100
AcDbBlockEnd
  0
ENDSEC
  0
SECTION
  2
ENTITIES
  0
SPLINE
  5
2C
330
1F
100
AcDbEntity
  8
Ebene 1
370
    20
100
AcDbSpline
210
0.0
220
0.0
230
1.0
 70
    24
 71
     3
 72
     8
 73
     4
 74
     0
 42
0.0000000001
 43
0.0000000001
 40
0.0
 40
0.0
 40
0.0
 40
0.0
 40
1.0
 40
1.0
 40
1.0
 40
1.0
 10
-12.0057
 20
47.5277
 30
0.0
 10
-12.0057
 20
47.5277
 30
0.0
 10
-9.647400000000001
 20
47.2133
 30
0.0
 10
-9.647400000000001
 20
47.2133
 30
0.0
  0
SPLINE
  5
2D
330
1F
100
AcDbEntity
  8
Ebene 1
370
    20
100
AcDbSpline
210
0.0
220
0.0
230
1.0
 70
    24
 71
     3
 72
     8
 73
     4
 74
     0
 42
0.0000000001
 43
0.0000000001
 40
0.0
 40
0.0
 40
0.0
 40
0.0
 40
1.0
 40
1.0
 40
1.0
 40
1.0
 10
-12.0057
 20
46.8792
 30
0.0
 10
-12.0057
 20
46.8792
 30
0.0
 10
-9.647400000000001
 20
47.2133
 30
0.0
 10
-9.647400000000001
 20
47.2133
 30
0.0
  0
SPLINE
  5
2E
330
1F
100
AcDbEntity
  8
Ebene 1
370
    20
100
AcDbSpline
210
0.0
220
0.0
230
1.0
 70
    24
 71
     3
 72
     8
 73
     4
 74
     0
 42
0.0000000001
 43
0.0000000001
 40
0.0
 40
0.0
 40
0.0
 40
0.0
 40
1.0
 40
1.0
 40
1.0
 40
1.0
 10
-12.0057
 20
47.8618
 30
0.0
 10
-12.0057
 20
47.8618
 30
0.0
 10
-6.8372
 20
47.2133
 30
0.0
 10
-6.8372
 20
47.2133
 30
0.0
  0
SPLINE
  5
2F
330
1F
100
AcDbEntity
  8
Ebene 1
370
    20
100
AcDbSpline
210
0.0
220
0.0
230
1.0
 70
    24
 71
     3
 72
     8
 73
     4
 74
     0
 42
0.0000000001
 43
0.0000000001
 40
0.0
 40
0.0
 40
0.0
 40
0.0
 40
1.0
 40
1.0
 40
1.0
 40
1.0
 10
-12.0057
 20
46.54510000000001
 30
0.0
 10
-12.0057
 20
46.54510000000001
 30
0.0
 10
-6.8372
 20
47.2133
 30
0.0
 10
-6.8372
 20
47.2133
 30
0.0
  0
SPLINE
  5
30
330
1F
100
AcDbEntity
  8
Ebene 1
370
    20
100
AcDbSpline
210
0.0
220
0.0
230
1.0
 70
    24
 71
     3
 72
     8
 73
     4
 74
     0
 42
0.0000000001
 43
0.0000000001
 40
0.0
 40
0.0
 40
0.0
 40
0.0
 40
1.0
 40
1.0
 40
1.0
 40
1.0
 10
-12.0057
 20
48.2549
 30
0.0
 10
-12.0057
 20
48.2549
 30
0.0
 10
-4.0073
 20
47.2133
 30
0.0
 10
-4.0073
 20
47.2133
 30
0.0
  0
SPLINE
  5
31
330
1F
100
AcDbEntity
  8
Ebene 1
370
    20
100
AcDbSpline
210
0.0
220
0.0
230
1.0
 70
    24
 71
     3
 72
     8
 73
     4
 74
     0
 42
0.0000000001
 43
0.0000000001
 40
0.0
 40
0.0
 40
0.0
 40
0.0
 40
1.0
 40
1.0
 40
1.0
 40
1.0
 10
-12.0057
 20
46.1521
 30
0.0
 10
-12.0057
 20
46.1521
 30
0.0
 10
-4.0073
 20
47.2133
 30
0.0
 10
-4.0073
 20
47.2133
 30
0.0
  0
SPLINE
  5
32
330
1F
100
AcDbEntity
  8
Ebene 1
370
    20
100
AcDbSpline
210
0.0
220
0.0
230
1.0
 70
    24
 71
     3
 72
     8
 73
     4
 74
     0
 42
0.0000000001
 43
0.0000000001
 40
0.0
 40
0.0
 40
0.0
 40
0.0
 40
1.0
 40
1.0
 40
1.0
 40
1.0
 10
-11.9467
 20
45.7591
 30
0.0
 10
-11.9467
 20
45.7591
 30
0.0
 10
-11.9467
 20
48.5889
 30
0.0
 10
-11.9467
 20
48.5889
 30
0.0
  0
SPLINE
  5
33
330
1F
100
AcDbEntity
  8
Ebene 1
370
    20
100
AcDbSpline
210
0.0
220
0.0
230
1.0
 70
    24
 71
     3
 72
     8
 73
     4
 74
     0
 42
0.0000000001
 43
0.0000000001
 40
0.0
 40
0.0
 40
0.0
 40
0.0
 40
1.0
 40
1.0
 40
1.0
 40
1.0
 10
-11.9467
 20
48.5889
 30
0.0
 10
-11.9467
 20
48.5889
 30
0.0
 10
-1.1971
 20
47.2133
 30
0.0
 10
-1.1971
 20
47.2133
 30
0.0
  0
SPLINE
  5
34
330
1F
100
AcDbEntity
  8
Ebene 1
370
    20
100
AcDbSpline
210
0.0
220
0.0
230
1.0
 70
    24
 71
     3
 72
     8
 73
     4
 74
     0
 42
0.0000000001
 43
0.0000000001
 40
0.0
 40
0.0
 40
0.0
 40
0.0
 40
1.0
 40
1.0
 40
1.0
 40
1.0
 10
-11.9467
 20
45.7591
 30
0.0
 10
-11.9467
 20
45.7591
 30
0.0
 10
-1.1971
 20
47.2133
 30
0.0
 10
-1.1971
 20
47.2133
 30
0.0
  0
SPLINE
  5
35
330
1F
100
AcDbEntity
  8
Ebene 1
370
    20
100
AcDbSpline
210
0.0
220
0.0
230
1.0
 70
    24
 71
     3
 72
     8
 73
     4
 74
     0
 42
0.0000000001
 43
0.0000000001
 40
0.0
 40
0.0
 40
0.0
 40
0.0
 40
1.0
 40
1.0
 40
1.0
 40
1.0
 10
-37.2192
 20
47.2133
 30
0.0
 10
-37.2192
 20
47.2133
 30
0.0
 10
-34.8609
 20
46.8792
 30
0.0
 10
-34.8609
 20
46.8792
 30
0.0
  0
SPLINE
  5
36
330
1F
100
AcDbEntity
  8
Ebene 1
370
    20
100
AcDbSpline
210
0.0
220
0.0
230
1.0
 70
    24
 71
     3
 72
     8
 73
     4
 74
     0
 42
0.0000000001
 43
0.0000000001
 40
0.0
 40
0.0
 40
0.0
 40
0.0
 40
1.0
 40
1.0
 40
1.0
 40
1.0
 10
-37.2192
 20
47.2133
 30
0.0
 10
-37.2192
 20
47.2133
 30
0.0
 10
-34.8609
 20
47.5277
 30
0.0
 10
-34.8609
 20
47.5277
 30
0.0
  0
SPLINE
  5
37
330
1F
100
AcDbEntity
  8
Ebene 1
370
    20
100
AcDbSpline
210
0.0
220
0.0
230
1.0
 70
    24
 71
     3
 72
     8
 73
     4
 74
     0
 42
0.0000000001
 43
0.0000000001
 40
0.0
 40
0.0
 40
0.0
 40
0.0
 40
1.0
 40
1.0
 40
1.0
 40
1.0
 10
-40.049
 20
47.2133
 30
0.0
 10
-40.049
 20
47.2133
 30
0.0
 10
-34.9395
 20
46.54510000000001
 30
0.0
 10
-34.9395
 20
46.54510000000001
 30
0.0
  0
SPLINE
  5
38
330
1F
100
AcDbEntity
  8
Ebene 1
370
    20
100
AcDbSpline
210
0.0
220
0.0
230
1.0
 70
    24
 71
     3
 72
     8
 73
     4
 74
     0
 42
0.0000000001
 43
0.0000000001
 40
0.0
 40
0.0
 40
0.0
 40
0.0
 40
1.0
 40
1.0
 40
1.0
 40
1.0
 10
-40.049
 20
47.2133
 30
0.0
 10
-40.049
 20
47.2133
 30
0.0
 10
-34.9395
 20
47.8618
 30
0.0
 10
-34.9395
 20
47.8618
 30
0.0
  0
SPLINE
  5
39
330
1F
100
AcDbEntity
  8
Ebene 1
370
    20
100
AcDbSpline
210
0.0
220
0.0
230
1.0
 70
    24
 71
     3
 72
     8
 73
     4
 74
     0
 42
0.0000000001
 43
0.0000000001
 40
0.0
 40
0.0
 40
0.0
 40
0.0
 40
1.0
 40
1.0
 40
1.0
 40
1.0
 10
-42.85930000000001
 20
47.2133
 30
0.0
 10
-42.85930000000001
 20
47.2133
 30
0.0
 10
-34.9395
 20
46.1521
 30
0.0
 10
-34.9395
 20
46.1521
 30
0.0
  0
SPLINE
  5
3A
330
1F
100
AcDbEntity
  8
Ebene 1
370
    20
100
AcDbSpline
210
0.0
220
0.0
230
1.0
 70
    24
 71
     3
 72
     8
 73
     4
 74
     0
 42
0.0000000001
 43
0.0000000001
 40
0.0
 40
0.0
 40
0.0
 40
0.0
 40
1.0
 40
1.0
 40
1.0
 40
1.0
 10
-42.85930000000001
 20
47.2133
 30
0.0
 10
-42.85930000000001
 20
47.2133
 30
0.0
 10
-34.9395
 20
48.2549
 30
0.0
 10
-34.9395
 20
48.2549
 30
0.0
  0
SPLINE
  5
3B
330
1F
100
AcDbEntity
  8
Ebene 1
370
    20
100
AcDbSpline
210
0.0
220
0.0
230
1.0
 70
    24
 71
     3
 72
     8
 73
     4
 74
     0
 42
0.0000000001
 43
0.0000000001
 40
0.0
 40
0.0
 40
0.0
 40
0.0
 40
1.0
 40
1.0
 40
1.0
 40
1.0
 10
-34.9395
 20
48.5889
 30
0.0
 10
-34.9395
 20
48.5889
 30
0.0
 10
-34.9395
 20
45.7591
 30
0.0
 10
-34.9395
 20
45.7591
 30
0.0
  0
SPLINE
  5
3C
330
1F
100
AcDbEntity
  8
Ebene 1
370
    20
100
AcDbSpline
210
0.0
220
0.0
230
1.0
 70
    24
 71
     3
 72
     8
 73
     4
 74
     0
 42
0.0000000001
 43
0.0000000001
 40
0.0
 40
0.0
 40
0.0
 40
0.0
 40
1.0
 40
1.0
 40
1.0
 40
1.0
 10
-45.6695
 20
47.2133
 30
0.0
 10
-45.6695
 20
47.2133
 30
0.0
 10
-34.9395
 20
45.7591
 30
0.0
 10
-34.9395
 20
45.7591
 30
0.0
  0
SPLINE
  5
3D
330
1F
100
AcDbEntity
  8
Ebene 1
370
    20
100
AcDbSpline
210
0.0
220
0.0
230
1.0
 70
    24
 71
     3
 72
     8
 73
     4
 74
     0
 42
0.0000000001
 43
0.0000000001
 40
0.0
 40
0.0
 40
0.0
 40
0.0
 40
1.0
 40
1.0
 40
1.0
 40
1.0
 10
-45.6695
 20
47.2133
 30
0.0
 10
-45.6695
 20
47.2133
 30
0.0
 10
-34.9395
 20
48.5889
 30
0.0
 10
-34.9395
 20
48.5889
 30
0.0
  0
SPLINE
  5
3E
330
1F
100
AcDbEntity
  8
Ebene 1
370
    20
100
AcDbSpline
210
0.0
220
0.0
230
1.0
 70
    24
 71
     3
 72
     8
 73
     4
 74
     0
 42
0.0000000001
 43
0.0000000001
 40
0.0
 40
0.0
 40
0.0
 40
0.0
 40
1.0
 40
1.0
 40
1.0
 40
1.0
 10
-45.6695
 20
47.2133
 30
0.0
 10
-45.6695
 20
47.2133
 30
0.0
 10
-1.1971
 20
47.2133
 30
0.0
 10
-1.1971
 20
47.2133
 30
0.0
  0
SPLINE
  5
3F
330
1F
100
AcDbEntity
  8
Ebene 1
370
    20
100
AcDbSpline
210
0.0
220
0.0
230
1.0
 70
    24
 71
     3
 72
     8
 73
     4
 74
     0
 42
0.0000000001
 43
0.0000000001
 40
0.0
 40
0.0
 40
0.0
 40
0.0
 40
1.0
 40
1.0
 40
1.0
 40
1.0
 10
-1.1972
 20
53.6984
 30
0.0
 10
-1.1972
 20
53.6984
 30
0.0
 10
-1.1972
 20
36.3869
 30
0.0
 10
-1.1972
 20
36.3869
 30
0.0
  0
SPLINE
  5
40
330
1F
100
AcDbEntity
  8
Ebene 1
370
    20
100
AcDbSpline
210
0.0
220
0.0
230
1.0
 70
    24
 71
     3
 72
     8
 73
     4
 74
     0
 42
0.0000000001
 43
0.0000000001
 40
0.0
 40
0.0
 40
0.0
 40
0.0
 40
1.0
 40
1.0
 40
1.0
 40
1.0
 10
-45.6695
 20
53.6984
 30
0.0
 10
-45.6695
 20
53.6984
 30
0.0
 10
-45.6695
 20
36.8507
 30
0.0
 10
-45.6695
 20
36.8507
 30
0.0
  0
SPLINE
  5
41
330
1F
100
AcDbEntity
  8
Ebene 1
 62
   250
100
AcDbSpline
210
0.0
220
0.0
230
1.0
 70
    11
 71
     3
 72
    40
 73
    36
 74
     0
 42
0.0000000001
 43
0.0000000001
 40
0.0
 40
0.0
 40
0.0
 40
0.0
 40
0.1111111111111111
 40
0.1111111111111111
 40
0.1111111111111111
 40
0.1111111111111111
 40
0.2222222222222222
 40
0.2222222222222222
 40
0.2222222222222222
 40
0.2222222222222222
 40
0.3333333333333333
 40
0.3333333333333333
 40
0.3333333333333333
 40
0.3333333333333333
 40
0.4444444444444444
 40
0.4444444444444444
 40
0.4444444444444444
 40
0.4444444444444444
 40
0.5555555555555556
 40
0.5555555555555556
 40
0.5555555555555556
 40
0.5555555555555556
 40
0.6666666666666667
 40
0.6666666666666667
 40
0.6666666666666667
 40
0.6666666666666667
 40
0.7777777777777779
 40
0.7777777777777779
 40
0.7777777777777779
 40
0.7777777777777779
 40
0.8888888888888891
 40
0.8888888888888891
 40
0.8888888888888891
 40
0.8888888888888891
 40
1.0
 40
1.0
 40
1.0
 40
1.0
 10
-25.0683
 20
50.59840000000001
 30
0.0
 10
-25.0683
 20
50.59840000000001
 30
0.0
 10
-23.831
 20
56.49950000000001
 30
0.0
 10
-23.831
 20
56.49950000000001
 30
0.0
 10
-23.831
 20
56.49950000000001
 30
0.0
 10
-24.3642
 20
56.081
 30
0.0
 10
-25.1138
 20
55.7443
 30
0.0
 10
-26.0801
 20
55.49140000000001
 30
0.0
 10
-26.0801
 20
55.49140000000001
 30
0.0
 10
-26.0801
 20
55.49140000000001
 30
0.0
 10
-25.8999
 20
56.36660000000001
 30
0.0
 10
-25.8999
 20
56.36660000000001
 30
0.0
 10
-25.8999
 20
56.36660000000001
 30
0.0
 10
-25.4195
 20
56.5577
 30
0.0
 10
-24.9464
 20
56.80880000000001
 30
0.0
 10
-24.4788
 20
57.11810000000001
 30
0.0
 10
-24.4788
 20
57.11810000000001
 30
0.0
 10
-24.0111
 20
57.4275
 30
0.0
 10
-23.66
 20
57.6968
 30
0.0
 10
-23.4252
 20
57.9279
 30
0.0
 10
-23.4252
 20
57.9279
 30
0.0
 10
-23.2833
 20
58.0698
 30
0.0
 10
-23.1486
 20
58.2427
 30
0.0
 10
-23.0213
 20
58.4465
 30
0.0
 10
-23.0213
 20
58.4465
 30
0.0
 10
-23.0213
 20
58.4465
 30
0.0
 10
-22.4608
 20
58.4465
 30
0.0
 10
-22.4608
 20
58.4465
 30
0.0
 10
-22.4608
 20
58.4465
 30
0.0
 10
-22.4608
 20
58.4465
 30
0.0
 10
-24.0967
 20
50.59840000000001
 30
0.0
 10
-24.0967
 20
50.59840000000001
 30
0.0
 10
-24.0967
 20
50.59840000000001
 30
0.0
 10
-24.0967
 20
50.59840000000001
 30
0.0
 10
-25.0683
 20
50.59840000000001
 30
0.0
 10
-25.0683
 20
50.59840000000001
 30
0.0
  0
SPLINE
  5
42
330
1F
100
AcDbEntity
  8
Ebene 1
 62
   250
100
AcDbSpline
210
0.0
220
0.0
230
1.0
 70
    11
 71
     3
 72
    40
 73
    36
 74
     0
 42
0.0000000001
 43
0.0000000001
 40
0.0
 40
0.0
 40
0.0
 40
0.0
 40
0.1111111111111111
 40
0.1111111111111111
 40
0.1111111111111111
 40
0.1111111111111111
 40
0.2222222222222222
 40
0.2222222222222222
 40
0.2222222222222222
 40
0.2222222222222222
 40
0.3333333333333333
 40
0.3333333333333333
 40
0.3333333333333333
 40
0.3333333333333333
 40
0.4444444444444444
 40
0.4444444444444444
 40
0.4444444444444444
 40
0.4444444444444444
 40
0.5555555555555556
 40
0.5555555555555556
 40
0.5555555555555556
 40
0.5555555555555556
 40
0.6666666666666667
 40
0.6666666666666667
 40
0.6666666666666667
 40
0.6666666666666667
 40
0.7777777777777779
 40
0.7777777777777779
 40
0.7777777777777779
 40
0.7777777777777779
 40
0.8888888888888891
 40
0.8888888888888891
 40
0.8888888888888891
 40
0.8888888888888891
 40
1.0
 40
1.0
 40
1.0
 40
1.0
 10
-19.8059
 20
50.59840000000001
 30
0.0
 10
-19.8059
 20
50.59840000000001
 30
0.0
 10
-18.5686
 20
56.49950000000001
 30
0.0
 10
-18.5686
 20
56.49950000000001
 30
0.0
 10
-18.5686
 20
56.49950000000001
 30
0.0
 10
-19.1018
 20
56.081
 30
0.0
 10
-19.8514
 20
55.7443
 30
0.0
 10
-20.8177
 20
55.49140000000001
 30
0.0
 10
-20.8177
 20
55.49140000000001
 30
0.0
 10
-20.8177
 20
55.49140000000001
 30
0.0
 10
-20.6375
 20
56.36660000000001
 30
0.0
 10
-20.6375
 20
56.36660000000001
 30
0.0
 10
-20.6375
 20
56.36660000000001
 30
0.0
 10
-20.1571
 20
56.5577
 30
0.0
 10
-19.684
 20
56.80880000000001
 30
0.0
 10
-19.2164
 20
57.11810000000001
 30
0.0
 10
-19.2164
 20
57.11810000000001
 30
0.0
 10
-18.7487
 20
57.4275
 30
0.0
 10
-18.3976
 20
57.6968
 30
0.0
 10
-18.1628
 20
57.9279
 30
0.0
 10
-18.1628
 20
57.9279
 30
0.0
 10
-18.0209
 20
58.0698
 30
0.0
 10
-17.8862
 20
58.2427
 30
0.0
 10
-17.7589
 20
58.4465
 30
0.0
 10
-17.7589
 20
58.4465
 30
0.0
 10
-17.7589
 20
58.4465
 30
0.0
 10
-17.1984
 20
58.4465
 30
0.0
 10
-17.1984
 20
58.4465
 30
0.0
 10
-17.1984
 20
58.4465
 30
0.0
 10
-17.1984
 20
58.4465
 30
0.0
 10
-18.8343
 20
50.59840000000001
 30
0.0
 10
-18.8343
 20
50.59840000000001
 30
0.0
 10
-18.8343
 20
50.59840000000001
 30
0.0
 10
-18.8343
 20
50.59840000000001
 30
0.0
 10
-19.8059
 20
50.59840000000001
 30
0.0
 10
-19.8059
 20
50.59840000000001
 30
0.0
  0
SPLINE
  5
43
330
1F
100
AcDbEntity
  8
Ebene 1
 62
   250
100
AcDbSpline
210
0.0
220
0.0
230
1.0
 70
    11
 71
     3
 72
   120
 73
   116
 74
     0
 42
0.0000000001
 43
0.0000000001
 40
0.0
 40
0.0
 40
0.0
 40
0.0
 40
0.0344827586206897
 40
0.0344827586206897
 40
0.0344827586206897
 40
0.0344827586206897
 40
0.0689655172413793
 40
0.0689655172413793
 40
0.0689655172413793
 40
0.0689655172413793
 40
0.103448275862069
 40
0.103448275862069
 40
0.103448275862069
 40
0.103448275862069
 40
0.1379310344827586
 40
0.1379310344827586
 40
0.1379310344827586
 40
0.1379310344827586
 40
0.1724137931034483
 40
0.1724137931034483
 40
0.1724137931034483
 40
0.1724137931034483
 40
0.206896551724138
 40
0.206896551724138
 40
0.206896551724138
 40
0.206896551724138
 40
0.2413793103448276
 40
0.2413793103448276
 40
0.2413793103448276
 40
0.2413793103448276
 40
0.2758620689655173
 40
0.2758620689655173
 40
0.2758620689655173
 40
0.2758620689655173
 40
0.310344827586207
 40
0.310344827586207
 40
0.310344827586207
 40
0.310344827586207
 40
0.3448275862068966
 40
0.3448275862068966
 40
0.3448275862068966
 40
0.3448275862068966
 40
0.3793103448275863
 40
0.3793103448275863
 40
0.3793103448275863
 40
0.3793103448275863
 40
0.413793103448276
 40
0.413793103448276
 40
0.413793103448276
 40
0.413793103448276
 40
0.4482758620689656
 40
0.4482758620689656
 40
0.4482758620689656
 40
0.4482758620689656
 40
0.4827586206896553
 40
0.4827586206896553
 40
0.4827586206896553
 40
0.4827586206896553
 40
0.517241379310345
 40
0.517241379310345
 40
0.517241379310345
 40
0.517241379310345
 40
0.5517241379310346
 40
0.5517241379310346
 40
0.5517241379310346
 40
0.5517241379310346
 40
0.5862068965517242
 40
0.5862068965517242
 40
0.5862068965517242
 40
0.5862068965517242
 40
0.6206896551724138
 40
0.6206896551724138
 40
0.6206896551724138
 40
0.6206896551724138
 40
0.6551724137931034
 40
0.6551724137931034
 40
0.6551724137931034
 40
0.6551724137931034
 40
0.689655172413793
 40
0.689655172413793
 40
0.689655172413793
 40
0.689655172413793
 40
0.7241379310344827
 40
0.7241379310344827
 40
0.7241379310344827
 40
0.7241379310344827
 40
0.7586206896551723
 40
0.7586206896551723
 40
0.7586206896551723
 40
0.7586206896551723
 40
0.7931034482758619
 40
0.7931034482758619
 40
0.7931034482758619
 40
0.7931034482758619
 40
0.8275862068965515
 40
0.8275862068965515
 40
0.8275862068965515
 40
0.8275862068965515
 40
0.8620689655172411
 40
0.8620689655172411
 40
0.8620689655172411
 40
0.8620689655172411
 40
0.8965517241379307
 40
0.8965517241379307
 40
0.8965517241379307
 40
0.8965517241379307
 40
0.9310344827586203
 40
0.9310344827586203
 40
0.9310344827586203
 40
0.9310344827586203
 40
0.9655172413793099
 40
0.9655172413793099
 40
0.9655172413793099
 40
0.9655172413793099
 40
1.0
 40
1.0
 40
1.0
 40
1.0
 10
-15.599
 20
52.8329
 30
0.0
 10
-15.599
 20
52.8329
 30
0.0
 10
-14.6182
 20
52.9275
 30
0.0
 10
-14.6182
 20
52.9275
 30
0.0
 10
-14.6182
 20
52.9275
 30
0.0
 10
-14.6255
 20
52.7892
 30
0.0
 10
-14.6291
 20
52.7055
 30
0.0
 10
-14.6291
 20
52.6782
 30
0.0
 10
-14.6291
 20
52.6782
 30
0.0
 10
-14.6291
 20
52.4435
 30
0.0
 10
-14.5691
 20
52.207
 30
0.0
 10
-14.4508
 20
51.9686
 30
0.0
 10
-14.4508
 20
51.9686
 30
0.0
 10
-14.3307
 20
51.7302
 30
0.0
 10
-14.1687
 20
51.5482
 30
0.0
 10
-13.9649
 20
51.4227
 30
0.0
 10
-13.9649
 20
51.4227
 30
0.0
 10
-13.7611
 20
51.29530000000001
 30
0.0
 10
-13.5446
 20
51.2335
 30
0.0
 10
-13.3172
 20
51.2335
 30
0.0
 10
-13.3172
 20
51.2335
 30
0.0
 10
-13.0187
 20
51.2335
 30
0.0
 10
-12.7149
 20
51.3354
 30
0.0
 10
-12.4055
 20
51.5428
 30
0.0
 10
-12.4055
 20
51.5428
 30
0.0
 10
-12.0962
 20
51.7484
 30
0.0
 10
-11.8469
 20
52.0486
 30
0.0
 10
-11.654
 20
52.4435
 30
0.0
 10
-11.654
 20
52.4435
 30
0.0
 10
-11.4629
 20
52.8365
 30
0.0
 10
-11.3665
 20
53.2278
 30
0.0
 10
-11.3665
 20
53.6154
 30
0.0
 10
-11.3665
 20
53.6154
 30
0.0
 10
-11.3665
 20
54.0521
 30
0.0
 10
-11.4957
 20
54.4033
 30
0.0
 10
-11.7523
 20
54.6653
 30
0.0
 10
-11.7523
 20
54.6653
 30
0.0
 10
-12.0107
 20
54.92910000000001
 30
0.0
 10
-12.3491
 20
55.06010000000001
 30
0.0
 10
-12.7676
 20
55.06010000000001
 30
0.0
 10
-12.7676
 20
55.06010000000001
 30
0.0
 10
-13.0497
 20
55.06010000000001
 30
0.0
 10
-13.3153
 20
54.9928
 30
0.0
 10
-13.5646
 20
54.8582
 30
0.0
 10
-13.5646
 20
54.8582
 30
0.0
 10
-13.8157
 20
54.7235
 30
0.0
 10
-14.0486
 20
54.5197
 30
0.0
 10
-14.267
 20
54.2504
 30
0.0
 10
-14.267
 20
54.2504
 30
0.0
 10
-14.267
 20
54.2504
 30
0.0
 10
-15.1095
 20
54.30860000000001
 30
0.0
 10
-15.1095
 20
54.30860000000001
 30
0.0
 10
-15.1095
 20
54.30860000000001
 30
0.0
 10
-15.1095
 20
54.30860000000001
 30
0.0
 10
-13.9304
 20
58.3064
 30
0.0
 10
-13.9304
 20
58.3064
 30
0.0
 10
-13.9304
 20
58.3064
 30
0.0
 10
-13.9304
 20
58.3064
 30
0.0
 10
-10.1128
 20
58.3064
 30
0.0
 10
-10.1128
 20
58.3064
 30
0.0
 10
-10.1128
 20
58.3064
 30
0.0
 10
-10.1128
 20
58.3064
 30
0.0
 10
-10.3002
 20
57.422
 30
0.0
 10
-10.3002
 20
57.422
 30
0.0
 10
-10.3002
 20
57.422
 30
0.0
 10
-10.3002
 20
57.422
 30
0.0
 10
-13.2698
 20
57.422
 30
0.0
 10
-13.2698
 20
57.422
 30
0.0
 10
-13.2698
 20
57.422
 30
0.0
 10
-13.2698
 20
57.422
 30
0.0
 10
-13.8558
 20
55.4332
 30
0.0
 10
-13.8558
 20
55.4332
 30
0.0
 10
-13.8558
 20
55.4332
 30
0.0
 10
-13.6356
 20
55.5933
 30
0.0
 10
-13.4081
 20
55.7134
 30
0.0
 10
-13.177
 20
55.7935
 30
0.0
 10
-13.177
 20
55.7935
 30
0.0
 10
-12.9441
 20
55.8735
 30
0.0
 10
-12.7039
 20
55.91350000000001
 30
0.0
 10
-12.4583
 20
55.91350000000001
 30
0.0
 10
-12.4583
 20
55.91350000000001
 30
0.0
 10
-11.8614
 20
55.91350000000001
 30
0.0
 10
-11.372
 20
55.71700000000001
 30
0.0
 10
-10.988
 20
55.3222
 30
0.0
 10
-10.988
 20
55.3222
 30
0.0
 10
-10.6041
 20
54.9273
 30
0.0
 10
-10.4112
 20
54.3869
 30
0.0
 10
-10.4112
 20
53.7009
 30
0.0
 10
-10.4112
 20
53.7009
 30
0.0
 10
-10.4112
 20
53.1004
 30
0.0
 10
-10.544
 20
52.5472
 30
0.0
 10
-10.8061
 20
52.0395
 30
0.0
 10
-10.8061
 20
52.0395
 30
0.0
 10
-11.0699
 20
51.5337
 30
0.0
 10
-11.432
 20
51.1443
 30
0.0
 10
-11.8906
 20
50.8732
 30
0.0
 10
-11.8906
 20
50.8732
 30
0.0
 10
-12.3509
 20
50.6002
 30
0.0
 10
-12.8477
 20
50.4656
 30
0.0
 10
-13.3808
 20
50.4656
 30
0.0
 10
-13.3808
 20
50.4656
 30
0.0
 10
-13.8285
 20
50.4656
 30
0.0
 10
-14.2252
 20
50.5656
 30
0.0
 10
-14.5709
 20
50.76940000000001
 30
0.0
 10
-14.5709
 20
50.76940000000001
 30
0.0
 10
-14.9148
 20
50.9714
 30
0.0
 10
-15.1732
 20
51.2498
 30
0.0
 10
-15.346
 20
51.6065
 30
0.0
 10
-15.346
 20
51.6065
 30
0.0
 10
-15.5189
 20
51.9613
 30
0.0
 10
-15.6044
 20
52.31610000000001
 30
0.0
 10
-15.6044
 20
52.6728
 30
0.0
 10
-15.6044
 20
52.6728
 30
0.0
 10
-15.6044
 20
52.7074
 30
0.0
 10
-15.6026
 20
52.7601
 30
0.0
 10
-15.599
 20
52.8329
 30
0.0
  0
SPLINE
  5
44
330
1F
100
AcDbEntity
  8
Ebene 1
370
    35
100
AcDbSpline
210
0.0
220
0.0
230
1.0
 70
    24
 71
     3
 72
     8
 73
     4
 74
     0
 42
0.0000000001
 43
0.0000000001
 40
0.0
 40
0.0
 40
0.0
 40
0.0
 40
1.0
 40
1.0
 40
1.0
 40
1.0
 10
-11.5007
 20
23.1814
 30
0.0
 10
-11.5007
 20
23.1814
 30
0.0
 10
-8.8269
 20
24.7093
 30
0.0
 10
-8.8269
 20
24.7093
 30
0.0
  0
SPLINE
  5
45
330
1F
100
AcDbEntity
  8
Ebene 1
370
    35
100
AcDbSpline
210
0.0
220
0.0
230
1.0
 70
    24
 71
     3
 72
     8
 73
     4
 74
     0
 42
0.0000000001
 43
0.0000000001
 40
0.0
 40
0.0
 40
0.0
 40
0.0
 40
1.0
 40
1.0
 40
1.0
 40
1.0
 10
-37.9389
 20
24.7093
 30
0.0
 10
-37.9389
 20
24.7093
 30
0.0
 10
-35.265
 20
23.1814
 30
0.0
 10
-35.265
 20
23.1814
 30
0.0
  0
SPLINE
  5
46
330
1F
100
AcDbEntity
  8
Ebene 1
370
    35
100
AcDbSpline
210
0.0
220
0.0
230
1.0
 70
    24
 71
     3
 72
     8
 73
     4
 74
     0
 42
0.0000000001
 43
0.0000000001
 40
0.0
 40
0.0
 40
0.0
 40
0.0
 40
1.0
 40
1.0
 40
1.0
 40
1.0
 10
-22.4143
 20
-2.1928
 30
0.0
 10
-22.4143
 20
-2.1928
 30
0.0
 10
-22.4143
 20
0.9177000000000001
 30
0.0
 10
-22.4143
 20
0.9177000000000001
 30
0.0
  0
SPLINE
  5
47
330
1F
100
AcDbEntity
  8
Ebene 1
370
    35
100
AcDbSpline
210
0.0
220
0.0
230
1.0
 70
    24
 71
     3
 72
     8
 73
     4
 74
     0
 42
0.0000000001
 43
0.0000000001
 40
0.0
 40
0.0
 40
0.0
 40
0.0
 40
1.0
 40
1.0
 40
1.0
 40
1.0
 10
-10.5457
 20
21.4898
 30
0.0
 10
-10.5457
 20
21.4898
 30
0.0
 10
-7.844600000000001
 20
23.045
 30
0.0
 10
-7.844600000000001
 20
23.045
 30
0.0
  0
SPLINE
  5
48
330
1F
100
AcDbEntity
  8
Ebene 1
370
    35
100
AcDbSpline
210
0.0
220
0.0
230
1.0
 70
    24
 71
     3
 72
     8
 73
     4
 74
     0
 42
0.0000000001
 43
0.0000000001
 40
0.0
 40
0.0
 40
0.0
 40
0.0
 40
1.0
 40
1.0
 40
1.0
 40
1.0
 10
-38.9211
 20
23.045
 30
0.0
 10
-38.9211
 20
23.045
 30
0.0
 10
-36.22
 20
21.4898
 30
0.0
 10
-36.22
 20
21.4898
 30
0.0
  0
SPLINE
  5
49
330
1F
100
AcDbEntity
  8
Ebene 1
370
    35
100
AcDbSpline
210
0.0
220
0.0
230
1.0
 70
    24
 71
     3
 72
     8
 73
     4
 74
     0
 42
0.0000000001
 43
0.0000000001
 40
0.0
 40
0.0
 40
0.0
 40
0.0
 40
1.0
 40
1.0
 40
1.0
 40
1.0
 10
-24.3514
 20
-2.1928
 30
0.0
 10
-24.3514
 20
-2.1928
 30
0.0
 10
-24.3514
 20
0.9177000000000001
 30
0.0
 10
-24.3514
 20
0.9177000000000001
 30
0.0
  0
SPLINE
  5
4A
330
1F
100
AcDbEntity
  8
Ebene 1
370
    35
100
AcDbSpline
210
0.0
220
0.0
230
1.0
 70
    11
 71
     3
 72
   460
 73
   456
 74
     0
 42
0.0000000001
 43
0.0000000001
 40
0.0
 40
0.0
 40
0.0
 40
0.0
 40
0.0087719298245614
 40
0.0087719298245614
 40
0.0087719298245614
 40
0.0087719298245614
 40
0.0175438596491228
 40
0.0175438596491228
 40
0.0175438596491228
 40
0.0175438596491228
 40
0.0263157894736842
 40
0.0263157894736842
 40
0.0263157894736842
 40
0.0263157894736842
 40
0.0350877192982456
 40
0.0350877192982456
 40
0.0350877192982456
 40
0.0350877192982456
 40
0.043859649122807
 40
0.043859649122807
 40
0.043859649122807
 40
0.043859649122807
 40
0.0526315789473684
 40
0.0526315789473684
 40
0.0526315789473684
 40
0.0526315789473684
 40
0.0614035087719298
 40
0.0614035087719298
 40
0.0614035087719298
 40
0.0614035087719298
 40
0.0701754385964912
 40
0.0701754385964912
 40
0.0701754385964912
 40
0.0701754385964912
 40
0.0789473684210526
 40
0.0789473684210526
 40
0.0789473684210526
 40
0.0789473684210526
 40
0.087719298245614
 40
0.087719298245614
 40
0.087719298245614
 40
0.087719298245614
 40
0.0964912280701754
 40
0.0964912280701754
 40
0.0964912280701754
 40
0.0964912280701754
 40
0.1052631578947368
 40
0.1052631578947368
 40
0.1052631578947368
 40
0.1052631578947368
 40
0.1140350877192982
 40
0.1140350877192982
 40
0.1140350877192982
 40
0.1140350877192982
 40
0.1228070175438596
 40
0.1228070175438596
 40
0.1228070175438596
 40
0.1228070175438596
 40
0.1315789473684211
 40
0.1315789473684211
 40
0.1315789473684211
 40
0.1315789473684211
 40
0.1403508771929825
 40
0.1403508771929825
 40
0.1403508771929825
 40
0.1403508771929825
 40
0.1491228070175439
 40
0.1491228070175439
 40
0.1491228070175439
 40
0.1491228070175439
 40
0.1578947368421053
 40
0.1578947368421053
 40
0.1578947368421053
 40
0.1578947368421053
 40
0.1666666666666667
 40
0.1666666666666667
 40
0.1666666666666667
 40
0.1666666666666667
 40
0.1754385964912281
 40
0.1754385964912281
 40
0.1754385964912281
 40
0.1754385964912281
 40
0.1842105263157895
 40
0.1842105263157895
 40
0.1842105263157895
 40
0.1842105263157895
 40
0.1929824561403509
 40
0.1929824561403509
 40
0.1929824561403509
 40
0.1929824561403509
 40
0.2017543859649123
 40
0.2017543859649123
 40
0.2017543859649123
 40
0.2017543859649123
 40
0.2105263157894737
 40
0.2105263157894737
 40
0.2105263157894737
 40
0.2105263157894737
 40
0.2192982456140351
 40
0.2192982456140351
 40
0.2192982456140351
 40
0.2192982456140351
 40
0.2280701754385965
 40
0.2280701754385965
 40
0.2280701754385965
 40
0.2280701754385965
 40
0.2368421052631579
 40
0.2368421052631579
 40
0.2368421052631579
 40
0.2368421052631579
 40
0.2456140350877193
 40
0.2456140350877193
 40
0.2456140350877193
 40
0.2456140350877193
 40
0.2543859649122807
 40
0.2543859649122807
 40
0.2543859649122807
 40
0.2543859649122807
 40
0.2631578947368422
 40
0.2631578947368422
 40
0.2631578947368422
 40
0.2631578947368422
 40
0.2719298245614036
 40
0.2719298245614036
 40
0.2719298245614036
 40
0.2719298245614036
 40
0.280701754385965
 40
0.280701754385965
 40
0.280701754385965
 40
0.280701754385965
 40
0.2894736842105264
 40
0.2894736842105264
 40
0.2894736842105264
 40
0.2894736842105264
 40
0.2982456140350879
 40
0.2982456140350879
 40
0.2982456140350879
 40
0.2982456140350879
 40
0.3070175438596493
 40
0.3070175438596493
 40
0.3070175438596493
 40
0.3070175438596493
 40
0.3157894736842107
 40
0.3157894736842107
 40
0.3157894736842107
 40
0.3157894736842107
 40
0.3245614035087722
 40
0.3245614035087722
 40
0.3245614035087722
 40
0.3245614035087722
 40
0.3333333333333336
 40
0.3333333333333336
 40
0.3333333333333336
 40
0.3333333333333336
 40
0.342105263157895
 40
0.342105263157895
 40
0.342105263157895
 40
0.342105263157895
 40
0.3508771929824565
 40
0.3508771929824565
 40
0.3508771929824565
 40
0.3508771929824565
 40
0.3596491228070179
 40
0.3596491228070179
 40
0.3596491228070179
 40
0.3596491228070179
 40
0.3684210526315793
 40
0.3684210526315793
 40
0.3684210526315793
 40
0.3684210526315793
 40
0.3771929824561408
 40
0.3771929824561408
 40
0.3771929824561408
 40
0.3771929824561408
 40
0.3859649122807022
 40
0.3859649122807022
 40
0.3859649122807022
 40
0.3859649122807022
 40
0.3947368421052636
 40
0.3947368421052636
 40
0.3947368421052636
 40
0.3947368421052636
 40
0.403508771929825
 40
0.403508771929825
 40
0.403508771929825
 40
0.403508771929825
 40
0.4122807017543865
 40
0.4122807017543865
 40
0.4122807017543865
 40
0.4122807017543865
 40
0.4210526315789479
 40
0.4210526315789479
 40
0.4210526315789479
 40
0.4210526315789479
 40
0.4298245614035093
 40
0.4298245614035093
 40
0.4298245614035093
 40
0.4298245614035093
 40
0.4385964912280708
 40
0.4385964912280708
 40
0.4385964912280708
 40
0.4385964912280708
 40
0.4473684210526322
 40
0.4473684210526322
 40
0.4473684210526322
 40
0.4473684210526322
 40
0.4561403508771936
 40
0.4561403508771936
 40
0.4561403508771936
 40
0.4561403508771936
 40
0.4649122807017551
 40
0.4649122807017551
 40
0.4649122807017551
 40
0.4649122807017551
 40
0.4736842105263165
 40
0.4736842105263165
 40
0.4736842105263165
 40
0.4736842105263165
 40
0.4824561403508779
 40
0.4824561403508779
 40
0.4824561403508779
 40
0.4824561403508779
 40
0.4912280701754394
 40
0.4912280701754394
 40
0.4912280701754394
 40
0.4912280701754394
 40
0.5000000000000008
 40
0.5000000000000008
 40
0.5000000000000008
 40
0.5000000000000008
 40
0.5087719298245622
 40
0.5087719298245622
 40
0.5087719298245622
 40
0.5087719298245622
 40
0.5175438596491236
 40
0.5175438596491236
 40
0.5175438596491236
 40
0.5175438596491236
 40
0.5263157894736851
 40
0.5263157894736851
 40
0.5263157894736851
 40
0.5263157894736851
 40
0.5350877192982465
 40
0.5350877192982465
 40
0.5350877192982465
 40
0.5350877192982465
 40
0.5438596491228079
 40
0.5438596491228079
 40
0.5438596491228079
 40
0.5438596491228079
 40
0.5526315789473694
 40
0.5526315789473694
 40
0.5526315789473694
 40
0.5526315789473694
 40
0.5614035087719308
 40
0.5614035087719308
 40
0.5614035087719308
 40
0.5614035087719308
 40
0.5701754385964922
 40
0.5701754385964922
 40
0.5701754385964922
 40
0.5701754385964922
 40
0.5789473684210537
 40
0.5789473684210537
 40
0.5789473684210537
 40
0.5789473684210537
 40
0.5877192982456151
 40
0.5877192982456151
 40
0.5877192982456151
 40
0.5877192982456151
 40
0.5964912280701765
 40
0.5964912280701765
 40
0.5964912280701765
 40
0.5964912280701765
 40
0.605263157894738
 40
0.605263157894738
 40
0.605263157894738
 40
0.605263157894738
 40
0.6140350877192994
 40
0.6140350877192994
 40
0.6140350877192994
 40
0.6140350877192994
 40
0.6228070175438608
 40
0.6228070175438608
 40
0.6228070175438608
 40
0.6228070175438608
 40
0.6315789473684222
 40
0.6315789473684222
 40
0.6315789473684222
 40
0.6315789473684222
 40
0.6403508771929837
 40
0.6403508771929837
 40
0.6403508771929837
 40
0.6403508771929837
 40
0.6491228070175451
 40
0.6491228070175451
 40
0.6491228070175451
 40
0.6491228070175451
 40
0.6578947368421065
 40
0.6578947368421065
 40
0.6578947368421065
 40
0.6578947368421065
 40
0.666666666666668
 40
0.666666666666668
 40
0.666666666666668
 40
0.666666666666668
 40
0.6754385964912294
 40
0.6754385964912294
 40
0.6754385964912294
 40
0.6754385964912294
 40
0.6842105263157908
 40
0.6842105263157908
 40
0.6842105263157908
 40
0.6842105263157908
 40
0.6929824561403523
 40
0.6929824561403523
 40
0.6929824561403523
 40
0.6929824561403523
 40
0.7017543859649137
 40
0.7017543859649137
 40
0.7017543859649137
 40
0.7017543859649137
 40
0.7105263157894751
 40
0.7105263157894751
 40
0.7105263157894751
 40
0.7105263157894751
 40
0.7192982456140366
 40
0.7192982456140366
 40
0.7192982456140366
 40
0.7192982456140366
 40
0.728070175438598
 40
0.728070175438598
 40
0.728070175438598
 40
0.728070175438598
 40
0.7368421052631594
 40
0.7368421052631594
 40
0.7368421052631594
 40
0.7368421052631594
 40
0.7456140350877208
 40
0.7456140350877208
 40
0.7456140350877208
 40
0.7456140350877208
 40
0.7543859649122823
 40
0.7543859649122823
 40
0.7543859649122823
 40
0.7543859649122823
 40
0.7631578947368437
 40
0.7631578947368437
 40
0.7631578947368437
 40
0.7631578947368437
 40
0.7719298245614051
 40
0.7719298245614051
 40
0.7719298245614051
 40
0.7719298245614051
 40
0.7807017543859666
 40
0.7807017543859666
 40
0.7807017543859666
 40
0.7807017543859666
 40
0.789473684210528
 40
0.789473684210528
 40
0.789473684210528
 40
0.789473684210528
 40
0.7982456140350894
 40
0.7982456140350894
 40
0.7982456140350894
 40
0.7982456140350894
 40
0.8070175438596509
 40
0.8070175438596509
 40
0.8070175438596509
 40
0.8070175438596509
 40
0.8157894736842123
 40
0.8157894736842123
 40
0.8157894736842123
 40
0.8157894736842123
 40
0.8245614035087737
 40
0.8245614035087737
 40
0.8245614035087737
 40
0.8245614035087737
 40
0.8333333333333352
 40
0.8333333333333352
 40
0.8333333333333352
 40
0.8333333333333352
 40
0.8421052631578966
 40
0.8421052631578966
 40
0.8421052631578966
 40
0.8421052631578966
 40
0.850877192982458
 40
0.850877192982458
 40
0.850877192982458
 40
0.850877192982458
 40
0.8596491228070194
 40
0.8596491228070194
 40
0.8596491228070194
 40
0.8596491228070194
 40
0.8684210526315809
 40
0.8684210526315809
 40
0.8684210526315809
 40
0.8684210526315809
 40
0.8771929824561423
 40
0.8771929824561423
 40
0.8771929824561423
 40
0.8771929824561423
 40
0.8859649122807037
 40
0.8859649122807037
 40
0.8859649122807037
 40
0.8859649122807037
 40
0.8947368421052652
 40
0.8947368421052652
 40
0.8947368421052652
 40
0.8947368421052652
 40
0.9035087719298266
 40
0.9035087719298266
 40
0.9035087719298266
 40
0.9035087719298266
 40
0.912280701754388
 40
0.912280701754388
 40
0.912280701754388
 40
0.912280701754388
 40
0.9210526315789495
 40
0.9210526315789495
 40
0.9210526315789495
 40
0.9210526315789495
 40
0.9298245614035109
 40
0.9298245614035109
 40
0.9298245614035109
 40
0.9298245614035109
 40
0.9385964912280723
 40
0.9385964912280723
 40
0.9385964912280723
 40
0.9385964912280723
 40
0.9473684210526338
 40
0.9473684210526338
 40
0.9473684210526338
 40
0.9473684210526338
 40
0.9561403508771952
 40
0.9561403508771952
 40
0.9561403508771952
 40
0.9561403508771952
 40
0.9649122807017566
 40
0.9649122807017566
 40
0.9649122807017566
 40
0.9649122807017566
 40
0.973684210526318
 40
0.973684210526318
 40
0.973684210526318
 40
0.973684210526318
 40
0.9824561403508795
 40
0.9824561403508795
 40
0.9824561403508795
 40
0.9824561403508795
 40
0.9912280701754409
 40
0.9912280701754409
 40
0.9912280701754409
 40
0.9912280701754409
 40
1.0
 40
1.0
 40
1.0
 40
1.0
 10
-23.3692
 20
0.8904000000000001
 30
0.0
 10
-23.3692
 20
0.8904000000000001
 30
0.0
 10
-22.6052
 20
0.9177000000000001
 30
0.0
 10
-22.6052
 20
0.9177000000000001
 30
0.0
 10
-22.6052
 20
0.9177000000000001
 30
0.0
 10
-22.6052
 20
0.9177000000000001
 30
0.0
 10
-21.814
 20
0.9722000000000001
 30
0.0
 10
-21.814
 20
0.9722000000000001
 30
0.0
 10
-21.814
 20
0.9722000000000001
 30
0.0
 10
-21.814
 20
0.9722000000000001
 30
0.0
 10
-21.0228
 20
1.0813
 30
0.0
 10
-21.0228
 20
1.0813
 30
0.0
 10
-21.0228
 20
1.0813
 30
0.0
 10
-21.0228
 20
1.0813
 30
0.0
 10
-20.2588
 20
1.245
 30
0.0
 10
-20.2588
 20
1.245
 30
0.0
 10
-20.2588
 20
1.245
 30
0.0
 10
-20.2588
 20
1.245
 30
0.0
 10
-19.4949
 20
1.436
 30
0.0
 10
-19.4949
 20
1.436
 30
0.0
 10
-19.4949
 20
1.436
 30
0.0
 10
-19.4949
 20
1.436
 30
0.0
 10
-18.7309
 20
1.6543
 30
0.0
 10
-18.7309
 20
1.6543
 30
0.0
 10
-18.7309
 20
1.6543
 30
0.0
 10
-18.7309
 20
1.6543
 30
0.0
 10
-17.9943
 20
1.9271
 30
0.0
 10
-17.9943
 20
1.9271
 30
0.0
 10
-17.9943
 20
1.9271
 30
0.0
 10
-17.9943
 20
1.9271
 30
0.0
 10
-17.2849
 20
2.2546
 30
0.0
 10
-17.2849
 20
2.2546
 30
0.0
 10
-17.2849
 20
2.2546
 30
0.0
 10
-17.2849
 20
2.2546
 30
0.0
 10
-16.5754
 20
2.6092
 30
0.0
 10
-16.5754
 20
2.6092
 30
0.0
 10
-16.5754
 20
2.6092
 30
0.0
 10
-16.5754
 20
2.6092
 30
0.0
 10
-15.8934
 20
3.0185
 30
0.0
 10
-15.8934
 20
3.0185
 30
0.0
 10
-15.8934
 20
3.0185
 30
0.0
 10
-15.8934
 20
3.0185
 30
0.0
 10
-15.2385
 20
3.4277
 30
0.0
 10
-15.2385
 20
3.4277
 30
0.0
 10
-15.2385
 20
3.4277
 30
0.0
 10
-15.2385
 20
3.4277
 30
0.0
 10
-14.5838
 20
3.8916
 30
0.0
 10
-14.5838
 20
3.8916
 30
0.0
 10
-14.5838
 20
3.8916
 30
0.0
 10
-14.5838
 20
3.8916
 30
0.0
 10
-13.9835
 20
4.41
 30
0.0
 10
-13.9835
 20
4.41
 30
0.0
 10
-13.9835
 20
4.41
 30
0.0
 10
-13.9835
 20
4.41
 30
0.0
 10
-13.4105
 20
4.9284
 30
0.0
 10
-13.4105
 20
4.9284
 30
0.0
 10
-13.4105
 20
4.9284
 30
0.0
 10
-13.4105
 20
4.9284
 30
0.0
 10
-12.8649
 20
5.501300000000001
 30
0.0
 10
-12.8649
 20
5.501300000000001
 30
0.0
 10
-12.8649
 20
5.501300000000001
 30
0.0
 10
-12.8649
 20
5.501300000000001
 30
0.0
 10
-12.3465
 20
6.1016
 30
0.0
 10
-12.3465
 20
6.1016
 30
0.0
 10
-12.3465
 20
6.1016
 30
0.0
 10
-12.3465
 20
6.1016
 30
0.0
 10
-11.8554
 20
6.729100000000001
 30
0.0
 10
-11.8554
 20
6.729100000000001
 30
0.0
 10
-11.8554
 20
6.729100000000001
 30
0.0
 10
-11.8554
 20
6.729100000000001
 30
0.0
 10
-11.3915
 20
7.3566
 30
0.0
 10
-11.3915
 20
7.3566
 30
0.0
 10
-11.3915
 20
7.3566
 30
0.0
 10
-11.3915
 20
7.3566
 30
0.0
 10
-10.9823
 20
8.0388
 30
0.0
 10
-10.9823
 20
8.0388
 30
0.0
 10
-10.9823
 20
8.0388
 30
0.0
 10
-10.9823
 20
8.0388
 30
0.0
 10
-10.6276
 20
8.748200000000001
 30
0.0
 10
-10.6276
 20
8.748200000000001
 30
0.0
 10
-10.6276
 20
8.748200000000001
 30
0.0
 10
-10.6276
 20
8.748200000000001
 30
0.0
 10
-10.2729
 20
9.4575
 30
0.0
 10
-10.2729
 20
9.4575
 30
0.0
 10
-10.2729
 20
9.4575
 30
0.0
 10
-10.2729
 20
9.4575
 30
0.0
 10
-9.9727
 20
10.1669
 30
0.0
 10
-9.9727
 20
10.1669
 30
0.0
 10
-9.9727
 20
10.1669
 30
0.0
 10
-9.9727
 20
10.1669
 30
0.0
 10
-9.7272
 20
10.9309
 30
0.0
 10
-9.7272
 20
10.9309
 30
0.0
 10
-9.7272
 20
10.9309
 30
0.0
 10
-9.7272
 20
10.9309
 30
0.0
 10
-9.508900000000001
 20
11.6948
 30
0.0
 10
-9.508900000000001
 20
11.6948
 30
0.0
 10
-9.508900000000001
 20
11.6948
 30
0.0
 10
-9.508900000000001
 20
11.6948
 30
0.0
 10
-9.3452
 20
12.4588
 30
0.0
 10
-9.3452
 20
12.4588
 30
0.0
 10
-9.3452
 20
12.4588
 30
0.0
 10
-9.3452
 20
12.4588
 30
0.0
 10
-9.2088
 20
13.2227
 30
0.0
 10
-9.2088
 20
13.2227
 30
0.0
 10
-9.2088
 20
13.2227
 30
0.0
 10
-9.2088
 20
13.2227
 30
0.0
 10
-9.126900000000001
 20
14.014
 30
0.0
 10
-9.126900000000001
 20
14.014
 30
0.0
 10
-9.126900000000001
 20
14.014
 30
0.0
 10
-9.126900000000001
 20
14.014
 30
0.0
 10
-9.0724
 20
14.8052
 30
0.0
 10
-9.0724
 20
14.8052
 30
0.0
 10
-9.0724
 20
14.8052
 30
0.0
 10
-9.0724
 20
14.8052
 30
0.0
 10
-9.0724
 20
15.5964
 30
0.0
 10
-9.0724
 20
15.5964
 30
0.0
 10
-9.0724
 20
15.5964
 30
0.0
 10
-9.0724
 20
15.5964
 30
0.0
 10
-9.126900000000001
 20
16.3877
 30
0.0
 10
-9.126900000000001
 20
16.3877
 30
0.0
 10
-9.126900000000001
 20
16.3877
 30
0.0
 10
-9.126900000000001
 20
16.3877
 30
0.0
 10
-9.2088
 20
17.1516
 30
0.0
 10
-9.2088
 20
17.1516
 30
0.0
 10
-9.2088
 20
17.1516
 30
0.0
 10
-9.2088
 20
17.1516
 30
0.0
 10
-9.3452
 20
17.9429
 30
0.0
 10
-9.3452
 20
17.9429
 30
0.0
 10
-9.3452
 20
17.9429
 30
0.0
 10
-9.3452
 20
17.9429
 30
0.0
 10
-9.508900000000001
 20
18.7068
 30
0.0
 10
-9.508900000000001
 20
18.7068
 30
0.0
 10
-9.508900000000001
 20
18.7068
 30
0.0
 10
-9.508900000000001
 20
18.7068
 30
0.0
 10
-9.7272
 20
19.4707
 30
0.0
 10
-9.7272
 20
19.4707
 30
0.0
 10
-9.7272
 20
19.4707
 30
0.0
 10
-9.7272
 20
19.4707
 30
0.0
 10
-9.9727
 20
20.2074
 30
0.0
 10
-9.9727
 20
20.2074
 30
0.0
 10
-9.9727
 20
20.2074
 30
0.0
 10
-9.9727
 20
20.2074
 30
0.0
 10
-10.2729
 20
20.9441
 30
0.0
 10
-10.2729
 20
20.9441
 30
0.0
 10
-10.2729
 20
20.9441
 30
0.0
 10
-10.2729
 20
20.9441
 30
0.0
 10
-10.6276
 20
21.6535
 30
0.0
 10
-10.6276
 20
21.6535
 30
0.0
 10
-10.6276
 20
21.6535
 30
0.0
 10
-10.6276
 20
21.6535
 30
0.0
 10
-10.9823
 20
22.3356
 30
0.0
 10
-10.9823
 20
22.3356
 30
0.0
 10
-10.9823
 20
22.3356
 30
0.0
 10
-10.9823
 20
22.3356
 30
0.0
 10
-11.3915
 20
23.0177
 30
0.0
 10
-11.3915
 20
23.0177
 30
0.0
 10
-11.3915
 20
23.0177
 30
0.0
 10
-11.3915
 20
23.0177
 30
0.0
 10
-11.8554
 20
23.6725
 30
0.0
 10
-11.8554
 20
23.6725
 30
0.0
 10
-11.8554
 20
23.6725
 30
0.0
 10
-11.8554
 20
23.6725
 30
0.0
 10
-12.3465
 20
24.3
 30
0.0
 10
-12.3465
 20
24.3
 30
0.0
 10
-12.3465
 20
24.3
 30
0.0
 10
-12.3465
 20
24.3
 30
0.0
 10
-12.8649
 20
24.873
 30
0.0
 10
-12.8649
 20
24.873
 30
0.0
 10
-12.8649
 20
24.873
 30
0.0
 10
-12.8649
 20
24.873
 30
0.0
 10
-13.4105
 20
25.446
 30
0.0
 10
-13.4105
 20
25.446
 30
0.0
 10
-13.4105
 20
25.446
 30
0.0
 10
-13.4105
 20
25.446
 30
0.0
 10
-13.9835
 20
25.9916
 30
0.0
 10
-13.9835
 20
25.9916
 30
0.0
 10
-13.9835
 20
25.9916
 30
0.0
 10
-13.9835
 20
25.9916
 30
0.0
 10
-14.5838
 20
26.4828
 30
0.0
 10
-14.5838
 20
26.4828
 30
0.0
 10
-14.5838
 20
26.4828
 30
0.0
 10
-14.5838
 20
26.4828
 30
0.0
 10
-15.2385
 20
26.9466
 30
0.0
 10
-15.2385
 20
26.9466
 30
0.0
 10
-15.2385
 20
26.9466
 30
0.0
 10
-15.2385
 20
26.9466
 30
0.0
 10
-15.8934
 20
27.3832
 30
0.0
 10
-15.8934
 20
27.3832
 30
0.0
 10
-15.8934
 20
27.3832
 30
0.0
 10
-15.8934
 20
27.3832
 30
0.0
 10
-16.5754
 20
27.7651
 30
0.0
 10
-16.5754
 20
27.7651
 30
0.0
 10
-16.5754
 20
27.7651
 30
0.0
 10
-16.5754
 20
27.7651
 30
0.0
 10
-17.2849
 20
28.1471
 30
0.0
 10
-17.2849
 20
28.1471
 30
0.0
 10
-17.2849
 20
28.1471
 30
0.0
 10
-17.2849
 20
28.1471
 30
0.0
 10
-17.9943
 20
28.4472
 30
0.0
 10
-17.9943
 20
28.4472
 30
0.0
 10
-17.9943
 20
28.4472
 30
0.0
 10
-17.9943
 20
28.4472
 30
0.0
 10
-18.7309
 20
28.7201
 30
0.0
 10
-18.7309
 20
28.7201
 30
0.0
 10
-18.7309
 20
28.7201
 30
0.0
 10
-18.7309
 20
28.7201
 30
0.0
 10
-19.4949
 20
28.9656
 30
0.0
 10
-19.4949
 20
28.9656
 30
0.0
 10
-19.4949
 20
28.9656
 30
0.0
 10
-19.4949
 20
28.9656
 30
0.0
 10
-20.2588
 20
29.1567
 30
0.0
 10
-20.2588
 20
29.1567
 30
0.0
 10
-20.2588
 20
29.1567
 30
0.0
 10
-20.2588
 20
29.1567
 30
0.0
 10
-21.0228
 20
29.3203
 30
0.0
 10
-21.0228
 20
29.3203
 30
0.0
 10
-21.0228
 20
29.3203
 30
0.0
 10
-21.0228
 20
29.3203
 30
0.0
 10
-21.814
 20
29.4294
 30
0.0
 10
-21.814
 20
29.4294
 30
0.0
 10
-21.814
 20
29.4294
 30
0.0
 10
-21.814
 20
29.4294
 30
0.0
 10
-22.6052
 20
29.484
 30
0.0
 10
-22.6052
 20
29.484
 30
0.0
 10
-22.6052
 20
29.484
 30
0.0
 10
-22.6052
 20
29.484
 30
0.0
 10
-23.3692
 20
29.5113
 30
0.0
 10
-23.3692
 20
29.5113
 30
0.0
 10
-23.3692
 20
29.5113
 30
0.0
 10
-23.3692
 20
29.5113
 30
0.0
 10
-24.1605
 20
29.484
 30
0.0
 10
-24.1605
 20
29.484
 30
0.0
 10
-24.1605
 20
29.484
 30
0.0
 10
-24.1605
 20
29.484
 30
0.0
 10
-24.9517
 20
29.4294
 30
0.0
 10
-24.9517
 20
29.4294
 30
0.0
 10
-24.9517
 20
29.4294
 30
0.0
 10
-24.9517
 20
29.4294
 30
0.0
 10
-25.7429
 20
29.3203
 30
0.0
 10
-25.7429
 20
29.3203
 30
0.0
 10
-25.7429
 20
29.3203
 30
0.0
 10
-25.7429
 20
29.3203
 30
0.0
 10
-26.5069
 20
29.1567
 30
0.0
 10
-26.5069
 20
29.1567
 30
0.0
 10
-26.5069
 20
29.1567
 30
0.0
 10
-26.5069
 20
29.1567
 30
0.0
 10
-27.2708
 20
28.9656
 30
0.0
 10
-27.2708
 20
28.9656
 30
0.0
 10
-27.2708
 20
28.9656
 30
0.0
 10
-27.2708
 20
28.9656
 30
0.0
 10
-28.0348
 20
28.7201
 30
0.0
 10
-28.0348
 20
28.7201
 30
0.0
 10
-28.0348
 20
28.7201
 30
0.0
 10
-28.0348
 20
28.7201
 30
0.0
 10
-28.7714
 20
28.4472
 30
0.0
 10
-28.7714
 20
28.4472
 30
0.0
 10
-28.7714
 20
28.4472
 30
0.0
 10
-28.7714
 20
28.4472
 30
0.0
 10
-29.4808
 20
28.1471
 30
0.0
 10
-29.4808
 20
28.1471
 30
0.0
 10
-29.4808
 20
28.1471
 30
0.0
 10
-29.4808
 20
28.1471
 30
0.0
 10
-30.1903
 20
27.7651
 30
0.0
 10
-30.1903
 20
27.7651
 30
0.0
 10
-30.1903
 20
27.7651
 30
0.0
 10
-30.1903
 20
27.7651
 30
0.0
 10
-30.8723
 20
27.3832
 30
0.0
 10
-30.8723
 20
27.3832
 30
0.0
 10
-30.8723
 20
27.3832
 30
0.0
 10
-30.8723
 20
27.3832
 30
0.0
 10
-31.5272
 20
26.9466
 30
0.0
 10
-31.5272
 20
26.9466
 30
0.0
 10
-31.5272
 20
26.9466
 30
0.0
 10
-31.5272
 20
26.9466
 30
0.0
 10
-32.1819
 20
26.4828
 30
0.0
 10
-32.1819
 20
26.4828
 30
0.0
 10
-32.1819
 20
26.4828
 30
0.0
 10
-32.1819
 20
26.4828
 30
0.0
 10
-32.7822
 20
25.9916
 30
0.0
 10
-32.7822
 20
25.9916
 30
0.0
 10
-32.7822
 20
25.9916
 30
0.0
 10
-32.7822
 20
25.9916
 30
0.0
 10
-33.3552
 20
25.446
 30
0.0
 10
-33.3552
 20
25.446
 30
0.0
 10
-33.3552
 20
25.446
 30
0.0
 10
-33.3552
 20
25.446
 30
0.0
 10
-33.9008
 20
24.873
 30
0.0
 10
-33.9008
 20
24.873
 30
0.0
 10
-33.9008
 20
24.873
 30
0.0
 10
-33.9008
 20
24.873
 30
0.0
 10
-34.4192
 20
24.3
 30
0.0
 10
-34.4192
 20
24.3
 30
0.0
 10
-34.4192
 20
24.3
 30
0.0
 10
-34.4192
 20
24.3
 30
0.0
 10
-34.9103
 20
23.6725
 30
0.0
 10
-34.9103
 20
23.6725
 30
0.0
 10
-34.9103
 20
23.6725
 30
0.0
 10
-34.9103
 20
23.6725
 30
0.0
 10
-35.34690000000001
 20
23.0177
 30
0.0
 10
-35.34690000000001
 20
23.0177
 30
0.0
 10
-35.34690000000001
 20
23.0177
 30
0.0
 10
-35.34690000000001
 20
23.0177
 30
0.0
 10
-35.7834
 20
22.3356
 30
0.0
 10
-35.7834
 20
22.3356
 30
0.0
 10
-35.7834
 20
22.3356
 30
0.0
 10
-35.7834
 20
22.3356
 30
0.0
 10
-36.1381
 20
21.6535
 30
0.0
 10
-36.1381
 20
21.6535
 30
0.0
 10
-36.1381
 20
21.6535
 30
0.0
 10
-36.1381
 20
21.6535
 30
0.0
 10
-36.4928
 20
20.9441
 30
0.0
 10
-36.4928
 20
20.9441
 30
0.0
 10
-36.4928
 20
20.9441
 30
0.0
 10
-36.4928
 20
20.9441
 30
0.0
 10
-36.793
 20
20.2074
 30
0.0
 10
-36.793
 20
20.2074
 30
0.0
 10
-36.793
 20
20.2074
 30
0.0
 10
-36.793
 20
20.2074
 30
0.0
 10
-37.0385
 20
19.4707
 30
0.0
 10
-37.0385
 20
19.4707
 30
0.0
 10
-37.0385
 20
19.4707
 30
0.0
 10
-37.0385
 20
19.4707
 30
0.0
 10
-37.2568
 20
18.7068
 30
0.0
 10
-37.2568
 20
18.7068
 30
0.0
 10
-37.2568
 20
18.7068
 30
0.0
 10
-37.2568
 20
18.7068
 30
0.0
 10
-37.4205
 20
17.9429
 30
0.0
 10
-37.4205
 20
17.9429
 30
0.0
 10
-37.4205
 20
17.9429
 30
0.0
 10
-37.4205
 20
17.9429
 30
0.0
 10
-37.5569
 20
17.1516
 30
0.0
 10
-37.5569
 20
17.1516
 30
0.0
 10
-37.5569
 20
17.1516
 30
0.0
 10
-37.5569
 20
17.1516
 30
0.0
 10
-37.6388
 20
16.3877
 30
0.0
 10
-37.6388
 20
16.3877
 30
0.0
 10
-37.6388
 20
16.3877
 30
0.0
 10
-37.6388
 20
16.3877
 30
0.0
 10
-37.6933
 20
15.5964
 30
0.0
 10
-37.6933
 20
15.5964
 30
0.0
 10
-37.6933
 20
15.5964
 30
0.0
 10
-37.6933
 20
15.5964
 30
0.0
 10
-37.6933
 20
14.8052
 30
0.0
 10
-37.6933
 20
14.8052
 30
0.0
 10
-37.6933
 20
14.8052
 30
0.0
 10
-37.6933
 20
14.8052
 30
0.0
 10
-37.6388
 20
14.014
 30
0.0
 10
-37.6388
 20
14.014
 30
0.0
 10
-37.6388
 20
14.014
 30
0.0
 10
-37.6388
 20
14.014
 30
0.0
 10
-37.5569
 20
13.2227
 30
0.0
 10
-37.5569
 20
13.2227
 30
0.0
 10
-37.5569
 20
13.2227
 30
0.0
 10
-37.5569
 20
13.2227
 30
0.0
 10
-37.4205
 20
12.4588
 30
0.0
 10
-37.4205
 20
12.4588
 30
0.0
 10
-37.4205
 20
12.4588
 30
0.0
 10
-37.4205
 20
12.4588
 30
0.0
 10
-37.2568
 20
11.6948
 30
0.0
 10
-37.2568
 20
11.6948
 30
0.0
 10
-37.2568
 20
11.6948
 30
0.0
 10
-37.2568
 20
11.6948
 30
0.0
 10
-37.0385
 20
10.9309
 30
0.0
 10
-37.0385
 20
10.9309
 30
0.0
 10
-37.0385
 20
10.9309
 30
0.0
 10
-37.0385
 20
10.9309
 30
0.0
 10
-36.793
 20
10.1669
 30
0.0
 10
-36.793
 20
10.1669
 30
0.0
 10
-36.793
 20
10.1669
 30
0.0
 10
-36.793
 20
10.1669
 30
0.0
 10
-36.4928
 20
9.4575
 30
0.0
 10
-36.4928
 20
9.4575
 30
0.0
 10
-36.4928
 20
9.4575
 30
0.0
 10
-36.4928
 20
9.4575
 30
0.0
 10
-36.1381
 20
8.748200000000001
 30
0.0
 10
-36.1381
 20
8.748200000000001
 30
0.0
 10
-36.1381
 20
8.748200000000001
 30
0.0
 10
-36.1381
 20
8.748200000000001
 30
0.0
 10
-35.7834
 20
8.0388
 30
0.0
 10
-35.7834
 20
8.0388
 30
0.0
 10
-35.7834
 20
8.0388
 30
0.0
 10
-35.7834
 20
8.0388
 30
0.0
 10
-35.34690000000001
 20
7.3566
 30
0.0
 10
-35.34690000000001
 20
7.3566
 30
0.0
 10
-35.34690000000001
 20
7.3566
 30
0.0
 10
-35.34690000000001
 20
7.3566
 30
0.0
 10
-34.9103
 20
6.729100000000001
 30
0.0
 10
-34.9103
 20
6.729100000000001
 30
0.0
 10
-34.9103
 20
6.729100000000001
 30
0.0
 10
-34.9103
 20
6.729100000000001
 30
0.0
 10
-34.4192
 20
6.1016
 30
0.0
 10
-34.4192
 20
6.1016
 30
0.0
 10
-34.4192
 20
6.1016
 30
0.0
 10
-34.4192
 20
6.1016
 30
0.0
 10
-33.9008
 20
5.501300000000001
 30
0.0
 10
-33.9008
 20
5.501300000000001
 30
0.0
 10
-33.9008
 20
5.501300000000001
 30
0.0
 10
-33.9008
 20
5.501300000000001
 30
0.0
 10
-33.3552
 20
4.9284
 30
0.0
 10
-33.3552
 20
4.9284
 30
0.0
 10
-33.3552
 20
4.9284
 30
0.0
 10
-33.3552
 20
4.9284
 30
0.0
 10
-32.7822
 20
4.41
 30
0.0
 10
-32.7822
 20
4.41
 30
0.0
 10
-32.7822
 20
4.41
 30
0.0
 10
-32.7822
 20
4.41
 30
0.0
 10
-32.1819
 20
3.8916
 30
0.0
 10
-32.1819
 20
3.8916
 30
0.0
 10
-32.1819
 20
3.8916
 30
0.0
 10
-32.1819
 20
3.8916
 30
0.0
 10
-31.5272
 20
3.4277
 30
0.0
 10
-31.5272
 20
3.4277
 30
0.0
 10
-31.5272
 20
3.4277
 30
0.0
 10
-31.5272
 20
3.4277
 30
0.0
 10
-30.8723
 20
3.0185
 30
0.0
 10
-30.8723
 20
3.0185
 30
0.0
 10
-30.8723
 20
3.0185
 30
0.0
 10
-30.8723
 20
3.0185
 30
0.0
 10
-30.1903
 20
2.6092
 30
0.0
 10
-30.1903
 20
2.6092
 30
0.0
 10
-30.1903
 20
2.6092
 30
0.0
 10
-30.1903
 20
2.6092
 30
0.0
 10
-29.4808
 20
2.2546
 30
0.0
 10
-29.4808
 20
2.2546
 30
0.0
 10
-29.4808
 20
2.2546
 30
0.0
 10
-29.4808
 20
2.2546
 30
0.0
 10
-28.7714
 20
1.9271
 30
0.0
 10
-28.7714
 20
1.9271
 30
0.0
 10
-28.7714
 20
1.9271
 30
0.0
 10
-28.7714
 20
1.9271
 30
0.0
 10
-28.0348
 20
1.6543
 30
0.0
 10
-28.0348
 20
1.6543
 30
0.0
 10
-28.0348
 20
1.6543
 30
0.0
 10
-28.0348
 20
1.6543
 30
0.0
 10
-27.2708
 20
1.436
 30
0.0
 10
-27.2708
 20
1.436
 30
0.0
 10
-27.2708
 20
1.436
 30
0.0
 10
-27.2708
 20
1.436
 30
0.0
 10
-26.5069
 20
1.245
 30
0.0
 10
-26.5069
 20
1.245
 30
0.0
 10
-26.5069
 20
1.245
 30
0.0
 10
-26.5069
 20
1.245
 30
0.0
 10
-25.7429
 20
1.0813
 30
0.0
 10
-25.7429
 20
1.0813
 30
0.0
 10
-25.7429
 20
1.0813
 30
0.0
 10
-25.7429
 20
1.0813
 30
0.0
 10
-24.9517
 20
0.9722000000000001
 30
0.0
 10
-24.9517
 20
0.9722000000000001
 30
0.0
 10
-24.9517
 20
0.9722000000000001
 30
0.0
 10
-24.9517
 20
0.9722000000000001
 30
0.0
 10
-24.1605
 20
0.9177000000000001
 30
0.0
 10
-24.1605
 20
0.9177000000000001
 30
0.0
 10
-24.1605
 20
0.9177000000000001
 30
0.0
 10
-24.1605
 20
0.9177000000000001
 30
0.0
 10
-23.3692
 20
0.8904000000000001
 30
0.0
 10
-23.3692
 20
0.8904000000000001
 30
0.0
  0
SPLINE
  5
4B
330
1F
100
AcDbEntity
  8
Ebene 1
370
    13
100
AcDbSpline
210
0.0
220
0.0
230
1.0
 70
    24
 71
     3
 72
     8
 73
     4
 74
     0
 42
0.0000000001
 43
0.0000000001
 40
0.0
 40
0.0
 40
0.0
 40
0.0
 40
1.0
 40
1.0
 40
1.0
 40
1.0
 10
-6.2621
 20
-2.5201
 30
0.0
 10
-6.2621
 20
-2.5201
 30
0.0
 10
-6.2621
 20
-2.5474
 30
0.0
 10
-6.2621
 20
-2.5474
 30
0.0
  0
SPLINE
  5
4C
330
1F
100
AcDbEntity
  8
Ebene 1
370
    13
100
AcDbSpline
210
0.0
220
0.0
230
1.0
 70
    24
 71
     3
 72
     8
 73
     4
 74
     0
 42
0.0000000001
 43
0.0000000001
 40
0.0
 40
0.0
 40
0.0
 40
0.0
 40
1.0
 40
1.0
 40
1.0
 40
1.0
 10
-6.7805
 20
-3.2841
 30
0.0
 10
-6.7805
 20
-3.2841
 30
0.0
 10
-6.7805
 20
-2.9294
 30
0.0
 10
-6.7805
 20
-2.9294
 30
0.0
  0
SPLINE
  5
4D
330
1F
100
AcDbEntity
  8
Ebene 1
370
    13
100
AcDbSpline
210
0.0
220
0.0
230
1.0
 70
    24
 71
     3
 72
     8
 73
     4
 74
     0
 42
0.0000000001
 43
0.0000000001
 40
0.0
 40
0.0
 40
0.0
 40
0.0
 40
1.0
 40
1.0
 40
1.0
 40
1.0
 10
-6.7805
 20
-2.3838
 30
0.0
 10
-6.7805
 20
-2.3838
 30
0.0
 10
-6.425800000000001
 20
-2.3838
 30
0.0
 10
-6.425800000000001
 20
-2.3838
 30
0.0
  0
SPLINE
  5
4E
330
1F
100
AcDbEntity
  8
Ebene 1
370
    13
100
AcDbSpline
210
0.0
220
0.0
230
1.0
 70
     8
 71
     3
 72
    36
 73
    32
 74
     0
 42
0.0000000001
 43
0.0000000001
 40
0.0
 40
0.0
 40
0.0
 40
0.0
 40
0.125
 40
0.125
 40
0.125
 40
0.125
 40
0.25
 40
0.25
 40
0.25
 40
0.25
 40
0.375
 40
0.375
 40
0.375
 40
0.375
 40
0.5
 40
0.5
 40
0.5
 40
0.5
 40
0.625
 40
0.625
 40
0.625
 40
0.625
 40
0.75
 40
0.75
 40
0.75
 40
0.75
 40
0.875
 40
0.875
 40
0.875
 40
0.875
 40
1.0
 40
1.0
 40
1.0
 40
1.0
 10
-6.0438
 20
-3.0113
 30
0.0
 10
-6.0438
 20
-3.0113
 30
0.0
 10
-6.0438
 20
-2.984
 30
0.0
 10
-6.0438
 20
-2.984
 30
0.0
 10
-6.0438
 20
-2.984
 30
0.0
 10
-6.0438
 20
-2.984
 30
0.0
 10
-6.0711
 20
-2.9294
 30
0.0
 10
-6.0711
 20
-2.9294
 30
0.0
 10
-6.0711
 20
-2.9294
 30
0.0
 10
-6.0711
 20
-2.9294
 30
0.0
 10
-6.0711
 20
-2.9021
 30
0.0
 10
-6.0711
 20
-2.9021
 30
0.0
 10
-6.0711
 20
-2.9021
 30
0.0
 10
-6.0711
 20
-2.9021
 30
0.0
 10
-6.098400000000001
 20
-2.9021
 30
0.0
 10
-6.098400000000001
 20
-2.9021
 30
0.0
 10
-6.098400000000001
 20
-2.9021
 30
0.0
 10
-6.098400000000001
 20
-2.9021
 30
0.0
 10
-6.1257
 20
-2.8749
 30
0.0
 10
-6.1257
 20
-2.8749
 30
0.0
 10
-6.1257
 20
-2.8749
 30
0.0
 10
-6.1257
 20
-2.8749
 30
0.0
 10
-6.1257
 20
-2.8476
 30
0.0
 10
-6.1257
 20
-2.8476
 30
0.0
 10
-6.1257
 20
-2.8476
 30
0.0
 10
-6.1257
 20
-2.8476
 30
0.0
 10
-6.153000000000001
 20
-2.8476
 30
0.0
 10
-6.153000000000001
 20
-2.8476
 30
0.0
 10
-6.153000000000001
 20
-2.8476
 30
0.0
 10
-6.153000000000001
 20
-2.8476
 30
0.0
 10
-6.2076
 20
-2.8203
 30
0.0
 10
-6.2076
 20
-2.8203
 30
0.0
  0
SPLINE
  5
4F
330
1F
100
AcDbEntity
  8
Ebene 1
370
    13
100
AcDbSpline
210
0.0
220
0.0
230
1.0
 70
    24
 71
     3
 72
     8
 73
     4
 74
     0
 42
0.0000000001
 43
0.0000000001
 40
0.0
 40
0.0
 40
0.0
 40
0.0
 40
1.0
 40
1.0
 40
1.0
 40
1.0
 10
-6.9988
 20
-2.1655
 30
0.0
 10
-6.9988
 20
-2.1655
 30
0.0
 10
-6.9988
 20
-3.2841
 30
0.0
 10
-6.9988
 20
-3.2841
 30
0.0
  0
SPLINE
  5
50
330
1F
100
AcDbEntity
  8
Ebene 1
370
    13
100
AcDbSpline
210
0.0
220
0.0
230
1.0
 70
     8
 71
     3
 72
    36
 73
    32
 74
     0
 42
0.0000000001
 43
0.0000000001
 40
0.0
 40
0.0
 40
0.0
 40
0.0
 40
0.125
 40
0.125
 40
0.125
 40
0.125
 40
0.25
 40
0.25
 40
0.25
 40
0.25
 40
0.375
 40
0.375
 40
0.375
 40
0.375
 40
0.5
 40
0.5
 40
0.5
 40
0.5
 40
0.625
 40
0.625
 40
0.625
 40
0.625
 40
0.75
 40
0.75
 40
0.75
 40
0.75
 40
0.875
 40
0.875
 40
0.875
 40
0.875
 40
1.0
 40
1.0
 40
1.0
 40
1.0
 10
-6.425800000000001
 20
-2.7112
 30
0.0
 10
-6.425800000000001
 20
-2.7112
 30
0.0
 10
-6.3985
 20
-2.7112
 30
0.0
 10
-6.3985
 20
-2.7112
 30
0.0
 10
-6.3985
 20
-2.7112
 30
0.0
 10
-6.3985
 20
-2.7112
 30
0.0
 10
-6.371300000000001
 20
-2.7112
 30
0.0
 10
-6.371300000000001
 20
-2.7112
 30
0.0
 10
-6.371300000000001
 20
-2.7112
 30
0.0
 10
-6.371300000000001
 20
-2.7112
 30
0.0
 10
-6.344
 20
-2.6839
 30
0.0
 10
-6.344
 20
-2.6839
 30
0.0
 10
-6.344
 20
-2.6839
 30
0.0
 10
-6.344
 20
-2.6839
 30
0.0
 10
-6.3167
 20
-2.6839
 30
0.0
 10
-6.3167
 20
-2.6839
 30
0.0
 10
-6.3167
 20
-2.6839
 30
0.0
 10
-6.3167
 20
-2.6839
 30
0.0
 10
-6.289400000000001
 20
-2.6566
 30
0.0
 10
-6.289400000000001
 20
-2.6566
 30
0.0
 10
-6.289400000000001
 20
-2.6566
 30
0.0
 10
-6.289400000000001
 20
-2.6566
 30
0.0
 10
-6.289400000000001
 20
-2.6293
 30
0.0
 10
-6.289400000000001
 20
-2.6293
 30
0.0
 10
-6.289400000000001
 20
-2.6293
 30
0.0
 10
-6.289400000000001
 20
-2.6293
 30
0.0
 10
-6.2621
 20
-2.5747
 30
0.0
 10
-6.2621
 20
-2.5747
 30
0.0
 10
-6.2621
 20
-2.5747
 30
0.0
 10
-6.2621
 20
-2.5747
 30
0.0
 10
-6.2621
 20
-2.5474
 30
0.0
 10
-6.2621
 20
-2.5474
 30
0.0
  0
SPLINE
  5
51
330
1F
100
AcDbEntity
  8
Ebene 1
370
    13
100
AcDbSpline
210
0.0
220
0.0
230
1.0
 70
     8
 71
     3
 72
    36
 73
    32
 74
     0
 42
0.0000000001
 43
0.0000000001
 40
0.0
 40
0.0
 40
0.0
 40
0.0
 40
0.125
 40
0.125
 40
0.125
 40
0.125
 40
0.25
 40
0.25
 40
0.25
 40
0.25
 40
0.375
 40
0.375
 40
0.375
 40
0.375
 40
0.5
 40
0.5
 40
0.5
 40
0.5
 40
0.625
 40
0.625
 40
0.625
 40
0.625
 40
0.75
 40
0.75
 40
0.75
 40
0.75
 40
0.875
 40
0.875
 40
0.875
 40
0.875
 40
1.0
 40
1.0
 40
1.0
 40
1.0
 10
-6.2621
 20
-2.5201
 30
0.0
 10
-6.2621
 20
-2.5201
 30
0.0
 10
-6.2621
 20
-2.4929
 30
0.0
 10
-6.2621
 20
-2.4929
 30
0.0
 10
-6.2621
 20
-2.4929
 30
0.0
 10
-6.2621
 20
-2.4929
 30
0.0
 10
-6.289400000000001
 20
-2.4656
 30
0.0
 10
-6.289400000000001
 20
-2.4656
 30
0.0
 10
-6.289400000000001
 20
-2.4656
 30
0.0
 10
-6.289400000000001
 20
-2.4656
 30
0.0
 10
-6.289400000000001
 20
-2.4383
 30
0.0
 10
-6.289400000000001
 20
-2.4383
 30
0.0
 10
-6.289400000000001
 20
-2.4383
 30
0.0
 10
-6.289400000000001
 20
-2.4383
 30
0.0
 10
-6.3167
 20
-2.411
 30
0.0
 10
-6.3167
 20
-2.411
 30
0.0
 10
-6.3167
 20
-2.411
 30
0.0
 10
-6.3167
 20
-2.411
 30
0.0
 10
-6.344
 20
-2.411
 30
0.0
 10
-6.344
 20
-2.411
 30
0.0
 10
-6.344
 20
-2.411
 30
0.0
 10
-6.344
 20
-2.411
 30
0.0
 10
-6.371300000000001
 20
-2.3838
 30
0.0
 10
-6.371300000000001
 20
-2.3838
 30
0.0
 10
-6.371300000000001
 20
-2.3838
 30
0.0
 10
-6.371300000000001
 20
-2.3838
 30
0.0
 10
-6.3985
 20
-2.3838
 30
0.0
 10
-6.3985
 20
-2.3838
 30
0.0
 10
-6.3985
 20
-2.3838
 30
0.0
 10
-6.3985
 20
-2.3838
 30
0.0
 10
-6.425800000000001
 20
-2.3838
 30
0.0
 10
-6.425800000000001
 20
-2.3838
 30
0.0
  0
SPLINE
  5
52
330
1F
100
AcDbEntity
  8
Ebene 1
370
    13
100
AcDbSpline
210
0.0
220
0.0
230
1.0
 70
    24
 71
     3
 72
     8
 73
     4
 74
     0
 42
0.0000000001
 43
0.0000000001
 40
0.0
 40
0.0
 40
0.0
 40
0.0
 40
1.0
 40
1.0
 40
1.0
 40
1.0
 10
-6.234900000000001
 20
-2.1655
 30
0.0
 10
-6.234900000000001
 20
-2.1655
 30
0.0
 10
-6.9988
 20
-2.1655
 30
0.0
 10
-6.9988
 20
-2.1655
 30
0.0
  0
SPLINE
  5
53
330
1F
100
AcDbEntity
  8
Ebene 1
370
    13
100
AcDbSpline
210
0.0
220
0.0
230
1.0
 70
    24
 71
     3
 72
     8
 73
     4
 74
     0
 42
0.0000000001
 43
0.0000000001
 40
0.0
 40
0.0
 40
0.0
 40
0.0
 40
1.0
 40
1.0
 40
1.0
 40
1.0
 10
-6.7805
 20
-2.9294
 30
0.0
 10
-6.7805
 20
-2.9294
 30
0.0
 10
-6.425800000000001
 20
-2.9294
 30
0.0
 10
-6.425800000000001
 20
-2.9294
 30
0.0
  0
SPLINE
  5
54
330
1F
100
AcDbEntity
  8
Ebene 1
370
    13
100
AcDbSpline
210
0.0
220
0.0
230
1.0
 70
     8
 71
     3
 72
    36
 73
    32
 74
     0
 42
0.0000000001
 43
0.0000000001
 40
0.0
 40
0.0
 40
0.0
 40
0.0
 40
0.125
 40
0.125
 40
0.125
 40
0.125
 40
0.25
 40
0.25
 40
0.25
 40
0.25
 40
0.375
 40
0.375
 40
0.375
 40
0.375
 40
0.5
 40
0.5
 40
0.5
 40
0.5
 40
0.625
 40
0.625
 40
0.625
 40
0.625
 40
0.75
 40
0.75
 40
0.75
 40
0.75
 40
0.875
 40
0.875
 40
0.875
 40
0.875
 40
1.0
 40
1.0
 40
1.0
 40
1.0
 10
-6.2621
 20
-3.0932
 30
0.0
 10
-6.2621
 20
-3.0932
 30
0.0
 10
-6.2621
 20
-3.0659
 30
0.0
 10
-6.2621
 20
-3.0659
 30
0.0
 10
-6.2621
 20
-3.0659
 30
0.0
 10
-6.2621
 20
-3.0659
 30
0.0
 10
-6.289400000000001
 20
-3.0386
 30
0.0
 10
-6.289400000000001
 20
-3.0386
 30
0.0
 10
-6.289400000000001
 20
-3.0386
 30
0.0
 10
-6.289400000000001
 20
-3.0386
 30
0.0
 10
-6.289400000000001
 20
-3.0113
 30
0.0
 10
-6.289400000000001
 20
-3.0113
 30
0.0
 10
-6.289400000000001
 20
-3.0113
 30
0.0
 10
-6.289400000000001
 20
-3.0113
 30
0.0
 10
-6.3167
 20
-2.984
 30
0.0
 10
-6.3167
 20
-2.984
 30
0.0
 10
-6.3167
 20
-2.984
 30
0.0
 10
-6.3167
 20
-2.984
 30
0.0
 10
-6.344
 20
-2.9567
 30
0.0
 10
-6.344
 20
-2.9567
 30
0.0
 10
-6.344
 20
-2.9567
 30
0.0
 10
-6.344
 20
-2.9567
 30
0.0
 10
-6.371300000000001
 20
-2.9567
 30
0.0
 10
-6.371300000000001
 20
-2.9567
 30
0.0
 10
-6.371300000000001
 20
-2.9567
 30
0.0
 10
-6.371300000000001
 20
-2.9567
 30
0.0
 10
-6.3985
 20
-2.9294
 30
0.0
 10
-6.3985
 20
-2.9294
 30
0.0
 10
-6.3985
 20
-2.9294
 30
0.0
 10
-6.3985
 20
-2.9294
 30
0.0
 10
-6.425800000000001
 20
-2.9294
 30
0.0
 10
-6.425800000000001
 20
-2.9294
 30
0.0
  0
SPLINE
  5
55
330
1F
100
AcDbEntity
  8
Ebene 1
370
    13
100
AcDbSpline
210
0.0
220
0.0
230
1.0
 70
    24
 71
     3
 72
     8
 73
     4
 74
     0
 42
0.0000000001
 43
0.0000000001
 40
0.0
 40
0.0
 40
0.0
 40
0.0
 40
1.0
 40
1.0
 40
1.0
 40
1.0
 10
-6.0438
 20
-2.6566
 30
0.0
 10
-6.0438
 20
-2.6566
 30
0.0
 10
-6.0438
 20
-2.3292
 30
0.0
 10
-6.0438
 20
-2.3292
 30
0.0
  0
SPLINE
  5
56
330
1F
100
AcDbEntity
  8
Ebene 1
370
    13
100
AcDbSpline
210
0.0
220
0.0
230
1.0
 70
    24
 71
     3
 72
     8
 73
     4
 74
     0
 42
0.0000000001
 43
0.0000000001
 40
0.0
 40
0.0
 40
0.0
 40
0.0
 40
1.0
 40
1.0
 40
1.0
 40
1.0
 10
-6.9988
 20
-3.2841
 30
0.0
 10
-6.9988
 20
-3.2841
 30
0.0
 10
-6.7805
 20
-3.2841
 30
0.0
 10
-6.7805
 20
-3.2841
 30
0.0
  0
SPLINE
  5
57
330
1F
100
AcDbEntity
  8
Ebene 1
370
    13
100
AcDbSpline
210
0.0
220
0.0
230
1.0
 70
    24
 71
     3
 72
     8
 73
     4
 74
     0
 42
0.0000000001
 43
0.0000000001
 40
0.0
 40
0.0
 40
0.0
 40
0.0
 40
1.0
 40
1.0
 40
1.0
 40
1.0
 10
-6.2621
 20
-3.0932
 30
0.0
 10
-6.2621
 20
-3.0932
 30
0.0
 10
-6.2621
 20
-3.2841
 30
0.0
 10
-6.2621
 20
-3.2841
 30
0.0
  0
SPLINE
  5
58
330
1F
100
AcDbEntity
  8
Ebene 1
370
    13
100
AcDbSpline
210
0.0
220
0.0
230
1.0
 70
    24
 71
     3
 72
     8
 73
     4
 74
     0
 42
0.0000000001
 43
0.0000000001
 40
0.0
 40
0.0
 40
0.0
 40
0.0
 40
1.0
 40
1.0
 40
1.0
 40
1.0
 10
-6.2621
 20
-3.2841
 30
0.0
 10
-6.2621
 20
-3.2841
 30
0.0
 10
-6.0438
 20
-3.2841
 30
0.0
 10
-6.0438
 20
-3.2841
 30
0.0
  0
SPLINE
  5
59
330
1F
100
AcDbEntity
  8
Ebene 1
370
    13
100
AcDbSpline
210
0.0
220
0.0
230
1.0
 70
    24
 71
     3
 72
     8
 73
     4
 74
     0
 42
0.0000000001
 43
0.0000000001
 40
0.0
 40
0.0
 40
0.0
 40
0.0
 40
1.0
 40
1.0
 40
1.0
 40
1.0
 10
-6.0438
 20
-3.2841
 30
0.0
 10
-6.0438
 20
-3.2841
 30
0.0
 10
-6.0438
 20
-3.0113
 30
0.0
 10
-6.0438
 20
-3.0113
 30
0.0
  0
SPLINE
  5
5A
330
1F
100
AcDbEntity
  8
Ebene 1
370
    13
100
AcDbSpline
210
0.0
220
0.0
230
1.0
 70
     8
 71
     3
 72
    32
 73
    28
 74
     0
 42
0.0000000001
 43
0.0000000001
 40
0.0
 40
0.0
 40
0.0
 40
0.0
 40
0.1428571428571429
 40
0.1428571428571429
 40
0.1428571428571429
 40
0.1428571428571429
 40
0.2857142857142857
 40
0.2857142857142857
 40
0.2857142857142857
 40
0.2857142857142857
 40
0.4285714285714286
 40
0.4285714285714286
 40
0.4285714285714286
 40
0.4285714285714286
 40
0.5714285714285714
 40
0.5714285714285714
 40
0.5714285714285714
 40
0.5714285714285714
 40
0.7142857142857142
 40
0.7142857142857142
 40
0.7142857142857142
 40
0.7142857142857142
 40
0.857142857142857
 40
0.857142857142857
 40
0.857142857142857
 40
0.857142857142857
 40
1.0
 40
1.0
 40
1.0
 40
1.0
 10
-6.2076
 20
-2.8203
 30
0.0
 10
-6.2076
 20
-2.8203
 30
0.0
 10
-6.153000000000001
 20
-2.8203
 30
0.0
 10
-6.153000000000001
 20
-2.8203
 30
0.0
 10
-6.153000000000001
 20
-2.8203
 30
0.0
 10
-6.153000000000001
 20
-2.8203
 30
0.0
 10
-6.1257
 20
-2.793
 30
0.0
 10
-6.1257
 20
-2.793
 30
0.0
 10
-6.1257
 20
-2.793
 30
0.0
 10
-6.1257
 20
-2.793
 30
0.0
 10
-6.098400000000001
 20
-2.7657
 30
0.0
 10
-6.098400000000001
 20
-2.7657
 30
0.0
 10
-6.098400000000001
 20
-2.7657
 30
0.0
 10
-6.098400000000001
 20
-2.7657
 30
0.0
 10
-6.0711
 20
-2.7385
 30
0.0
 10
-6.0711
 20
-2.7385
 30
0.0
 10
-6.0711
 20
-2.7385
 30
0.0
 10
-6.0711
 20
-2.7385
 30
0.0
 10
-6.0711
 20
-2.7112
 30
0.0
 10
-6.0711
 20
-2.7112
 30
0.0
 10
-6.0711
 20
-2.7112
 30
0.0
 10
-6.0711
 20
-2.7112
 30
0.0
 10
-6.0438
 20
-2.6839
 30
0.0
 10
-6.0438
 20
-2.6839
 30
0.0
 10
-6.0438
 20
-2.6839
 30
0.0
 10
-6.0438
 20
-2.6839
 30
0.0
 10
-6.0438
 20
-2.6566
 30
0.0
 10
-6.0438
 20
-2.6566
 30
0.0
  0
SPLINE
  5
5B
330
1F
100
AcDbEntity
  8
Ebene 1
370
    13
100
AcDbSpline
210
0.0
220
0.0
230
1.0
 70
    24
 71
     3
 72
     8
 73
     4
 74
     0
 42
0.0000000001
 43
0.0000000001
 40
0.0
 40
0.0
 40
0.0
 40
0.0
 40
1.0
 40
1.0
 40
1.0
 40
1.0
 10
-6.425800000000001
 20
-2.7112
 30
0.0
 10
-6.425800000000001
 20
-2.7112
 30
0.0
 10
-6.7805
 20
-2.7112
 30
0.0
 10
-6.7805
 20
-2.7112
 30
0.0
  0
SPLINE
  5
5C
330
1F
100
AcDbEntity
  8
Ebene 1
370
    13
100
AcDbSpline
210
0.0
220
0.0
230
1.0
 70
     8
 71
     3
 72
    36
 73
    32
 74
     0
 42
0.0000000001
 43
0.0000000001
 40
0.0
 40
0.0
 40
0.0
 40
0.0
 40
0.125
 40
0.125
 40
0.125
 40
0.125
 40
0.25
 40
0.25
 40
0.25
 40
0.25
 40
0.375
 40
0.375
 40
0.375
 40
0.375
 40
0.5
 40
0.5
 40
0.5
 40
0.5
 40
0.625
 40
0.625
 40
0.625
 40
0.625
 40
0.75
 40
0.75
 40
0.75
 40
0.75
 40
0.875
 40
0.875
 40
0.875
 40
0.875
 40
1.0
 40
1.0
 40
1.0
 40
1.0
 10
-6.0438
 20
-2.3292
 30
0.0
 10
-6.0438
 20
-2.3292
 30
0.0
 10
-6.0438
 20
-2.3019
 30
0.0
 10
-6.0438
 20
-2.3019
 30
0.0
 10
-6.0438
 20
-2.3019
 30
0.0
 10
-6.0438
 20
-2.3019
 30
0.0
 10
-6.0711
 20
-2.2746
 30
0.0
 10
-6.0711
 20
-2.2746
 30
0.0
 10
-6.0711
 20
-2.2746
 30
0.0
 10
-6.0711
 20
-2.2746
 30
0.0
 10
-6.0711
 20
-2.2474
 30
0.0
 10
-6.0711
 20
-2.2474
 30
0.0
 10
-6.0711
 20
-2.2474
 30
0.0
 10
-6.0711
 20
-2.2474
 30
0.0
 10
-6.098400000000001
 20
-2.2201
 30
0.0
 10
-6.098400000000001
 20
-2.2201
 30
0.0
 10
-6.098400000000001
 20
-2.2201
 30
0.0
 10
-6.098400000000001
 20
-2.2201
 30
0.0
 10
-6.1257
 20
-2.1928
 30
0.0
 10
-6.1257
 20
-2.1928
 30
0.0
 10
-6.1257
 20
-2.1928
 30
0.0
 10
-6.1257
 20
-2.1928
 30
0.0
 10
-6.153000000000001
 20
-2.1655
 30
0.0
 10
-6.153000000000001
 20
-2.1655
 30
0.0
 10
-6.153000000000001
 20
-2.1655
 30
0.0
 10
-6.153000000000001
 20
-2.1655
 30
0.0
 10
-6.2076
 20
-2.1655
 30
0.0
 10
-6.2076
 20
-2.1655
 30
0.0
 10
-6.2076
 20
-2.1655
 30
0.0
 10
-6.2076
 20
-2.1655
 30
0.0
 10
-6.234900000000001
 20
-2.1655
 30
0.0
 10
-6.234900000000001
 20
-2.1655
 30
0.0
  0
SPLINE
  5
5D
330
1F
100
AcDbEntity
  8
Ebene 1
370
    13
100
AcDbSpline
210
0.0
220
0.0
230
1.0
 70
    24
 71
     3
 72
     8
 73
     4
 74
     0
 42
0.0000000001
 43
0.0000000001
 40
0.0
 40
0.0
 40
0.0
 40
0.0
 40
1.0
 40
1.0
 40
1.0
 40
1.0
 10
-6.7805
 20
-2.7112
 30
0.0
 10
-6.7805
 20
-2.7112
 30
0.0
 10
-6.7805
 20
-2.3838
 30
0.0
 10
-6.7805
 20
-2.3838
 30
0.0
  0
SPLINE
  5
5E
330
1F
100
AcDbEntity
  8
Ebene 1
370
    13
100
AcDbSpline
210
0.0
220
0.0
230
1.0
 70
    24
 71
     3
 72
     8
 73
     4
 74
     0
 42
0.0000000001
 43
0.0000000001
 40
0.0
 40
0.0
 40
0.0
 40
0.0
 40
1.0
 40
1.0
 40
1.0
 40
1.0
 10
-8.062900000000001
 20
-3.2841
 30
0.0
 10
-8.062900000000001
 20
-3.2841
 30
0.0
 10
-7.298900000000001
 20
-3.2841
 30
0.0
 10
-7.298900000000001
 20
-3.2841
 30
0.0
  0
SPLINE
  5
5F
330
1F
100
AcDbEntity
  8
Ebene 1
370
    13
100
AcDbSpline
210
0.0
220
0.0
230
1.0
 70
    24
 71
     3
 72
     8
 73
     4
 74
     0
 42
0.0000000001
 43
0.0000000001
 40
0.0
 40
0.0
 40
0.0
 40
0.0
 40
1.0
 40
1.0
 40
1.0
 40
1.0
 10
-7.844600000000001
 20
-2.3019
 30
0.0
 10
-7.844600000000001
 20
-2.3019
 30
0.0
 10
-7.298900000000001
 20
-2.3019
 30
0.0
 10
-7.298900000000001
 20
-2.3019
 30
0.0
  0
SPLINE
  5
60
330
1F
100
AcDbEntity
  8
Ebene 1
370
    13
100
AcDbSpline
210
0.0
220
0.0
230
1.0
 70
    24
 71
     3
 72
     8
 73
     4
 74
     0
 42
0.0000000001
 43
0.0000000001
 40
0.0
 40
0.0
 40
0.0
 40
0.0
 40
1.0
 40
1.0
 40
1.0
 40
1.0
 10
-7.844600000000001
 20
-2.793
 30
0.0
 10
-7.844600000000001
 20
-2.793
 30
0.0
 10
-7.298900000000001
 20
-2.793
 30
0.0
 10
-7.298900000000001
 20
-2.793
 30
0.0
  0
SPLINE
  5
61
330
1F
100
AcDbEntity
  8
Ebene 1
370
    13
100
AcDbSpline
210
0.0
220
0.0
230
1.0
 70
    24
 71
     3
 72
     8
 73
     4
 74
     0
 42
0.0000000001
 43
0.0000000001
 40
0.0
 40
0.0
 40
0.0
 40
0.0
 40
1.0
 40
1.0
 40
1.0
 40
1.0
 10
-7.298900000000001
 20
-2.793
 30
0.0
 10
-7.298900000000001
 20
-2.793
 30
0.0
 10
-7.298900000000001
 20
-2.6566
 30
0.0
 10
-7.298900000000001
 20
-2.6566
 30
0.0
  0
SPLINE
  5
62
330
1F
100
AcDbEntity
  8
Ebene 1
370
    13
100
AcDbSpline
210
0.0
220
0.0
230
1.0
 70
    24
 71
     3
 72
     8
 73
     4
 74
     0
 42
0.0000000001
 43
0.0000000001
 40
0.0
 40
0.0
 40
0.0
 40
0.0
 40
1.0
 40
1.0
 40
1.0
 40
1.0
 10
-7.298900000000001
 20
-2.3019
 30
0.0
 10
-7.298900000000001
 20
-2.3019
 30
0.0
 10
-7.298900000000001
 20
-2.1655
 30
0.0
 10
-7.298900000000001
 20
-2.1655
 30
0.0
  0
SPLINE
  5
63
330
1F
100
AcDbEntity
  8
Ebene 1
370
    13
100
AcDbSpline
210
0.0
220
0.0
230
1.0
 70
    24
 71
     3
 72
     8
 73
     4
 74
     0
 42
0.0000000001
 43
0.0000000001
 40
0.0
 40
0.0
 40
0.0
 40
0.0
 40
1.0
 40
1.0
 40
1.0
 40
1.0
 10
-8.062900000000001
 20
-2.1655
 30
0.0
 10
-8.062900000000001
 20
-2.1655
 30
0.0
 10
-8.062900000000001
 20
-3.2841
 30
0.0
 10
-8.062900000000001
 20
-3.2841
 30
0.0
  0
SPLINE
  5
64
330
1F
100
AcDbEntity
  8
Ebene 1
370
    13
100
AcDbSpline
210
0.0
220
0.0
230
1.0
 70
    24
 71
     3
 72
     8
 73
     4
 74
     0
 42
0.0000000001
 43
0.0000000001
 40
0.0
 40
0.0
 40
0.0
 40
0.0
 40
1.0
 40
1.0
 40
1.0
 40
1.0
 10
-7.298900000000001
 20
-3.2841
 30
0.0
 10
-7.298900000000001
 20
-3.2841
 30
0.0
 10
-7.298900000000001
 20
-3.1477
 30
0.0
 10
-7.298900000000001
 20
-3.1477
 30
0.0
  0
SPLINE
  5
65
330
1F
100
AcDbEntity
  8
Ebene 1
370
    13
100
AcDbSpline
210
0.0
220
0.0
230
1.0
 70
    24
 71
     3
 72
     8
 73
     4
 74
     0
 42
0.0000000001
 43
0.0000000001
 40
0.0
 40
0.0
 40
0.0
 40
0.0
 40
1.0
 40
1.0
 40
1.0
 40
1.0
 10
-7.298900000000001
 20
-3.1477
 30
0.0
 10
-7.298900000000001
 20
-3.1477
 30
0.0
 10
-7.844600000000001
 20
-3.1477
 30
0.0
 10
-7.844600000000001
 20
-3.1477
 30
0.0
  0
SPLINE
  5
66
330
1F
100
AcDbEntity
  8
Ebene 1
370
    13
100
AcDbSpline
210
0.0
220
0.0
230
1.0
 70
    24
 71
     3
 72
     8
 73
     4
 74
     0
 42
0.0000000001
 43
0.0000000001
 40
0.0
 40
0.0
 40
0.0
 40
0.0
 40
1.0
 40
1.0
 40
1.0
 40
1.0
 10
-7.844600000000001
 20
-3.1477
 30
0.0
 10
-7.844600000000001
 20
-3.1477
 30
0.0
 10
-7.844600000000001
 20
-2.793
 30
0.0
 10
-7.844600000000001
 20
-2.793
 30
0.0
  0
SPLINE
  5
67
330
1F
100
AcDbEntity
  8
Ebene 1
370
    13
100
AcDbSpline
210
0.0
220
0.0
230
1.0
 70
    24
 71
     3
 72
     8
 73
     4
 74
     0
 42
0.0000000001
 43
0.0000000001
 40
0.0
 40
0.0
 40
0.0
 40
0.0
 40
1.0
 40
1.0
 40
1.0
 40
1.0
 10
-7.298900000000001
 20
-2.6566
 30
0.0
 10
-7.298900000000001
 20
-2.6566
 30
0.0
 10
-7.844600000000001
 20
-2.6566
 30
0.0
 10
-7.844600000000001
 20
-2.6566
 30
0.0
  0
SPLINE
  5
68
330
1F
100
AcDbEntity
  8
Ebene 1
370
    13
100
AcDbSpline
210
0.0
220
0.0
230
1.0
 70
    24
 71
     3
 72
     8
 73
     4
 74
     0
 42
0.0000000001
 43
0.0000000001
 40
0.0
 40
0.0
 40
0.0
 40
0.0
 40
1.0
 40
1.0
 40
1.0
 40
1.0
 10
-7.844600000000001
 20
-2.6566
 30
0.0
 10
-7.844600000000001
 20
-2.6566
 30
0.0
 10
-7.844600000000001
 20
-2.3019
 30
0.0
 10
-7.844600000000001
 20
-2.3019
 30
0.0
  0
SPLINE
  5
69
330
1F
100
AcDbEntity
  8
Ebene 1
370
    13
100
AcDbSpline
210
0.0
220
0.0
230
1.0
 70
    24
 71
     3
 72
     8
 73
     4
 74
     0
 42
0.0000000001
 43
0.0000000001
 40
0.0
 40
0.0
 40
0.0
 40
0.0
 40
1.0
 40
1.0
 40
1.0
 40
1.0
 10
-7.298900000000001
 20
-2.1655
 30
0.0
 10
-7.298900000000001
 20
-2.1655
 30
0.0
 10
-8.062900000000001
 20
-2.1655
 30
0.0
 10
-8.062900000000001
 20
-2.1655
 30
0.0
  0
SPLINE
  5
6A
330
1F
100
AcDbEntity
  8
Ebene 1
370
    13
100
AcDbSpline
210
0.0
220
0.0
230
1.0
 70
    24
 71
     3
 72
     8
 73
     4
 74
     0
 42
0.0000000001
 43
0.0000000001
 40
0.0
 40
0.0
 40
0.0
 40
0.0
 40
1.0
 40
1.0
 40
1.0
 40
1.0
 10
-6.698700000000001
 20
-2.6566
 30
0.0
 10
-6.698700000000001
 20
-2.6566
 30
0.0
 10
-6.425800000000001
 20
-2.6566
 30
0.0
 10
-6.425800000000001
 20
-2.6566
 30
0.0
  0
SPLINE
  5
6B
330
1F
100
AcDbEntity
  8
Ebene 1
370
    13
100
AcDbSpline
210
0.0
220
0.0
230
1.0
 70
    24
 71
     3
 72
     8
 73
     4
 74
     0
 42
0.0000000001
 43
0.0000000001
 40
0.0
 40
0.0
 40
0.0
 40
0.0
 40
1.0
 40
1.0
 40
1.0
 40
1.0
 10
-6.344
 20
-2.5201
 30
0.0
 10
-6.344
 20
-2.5201
 30
0.0
 10
-6.344
 20
-2.5474
 30
0.0
 10
-6.344
 20
-2.5474
 30
0.0
  0
SPLINE
  5
6C
330
1F
100
AcDbEntity
  8
Ebene 1
370
    13
100
AcDbSpline
210
0.0
220
0.0
230
1.0
 70
     8
 71
     3
 72
    24
 73
    20
 74
     0
 42
0.0000000001
 43
0.0000000001
 40
0.0
 40
0.0
 40
0.0
 40
0.0
 40
0.2
 40
0.2
 40
0.2
 40
0.2
 40
0.4
 40
0.4
 40
0.4
 40
0.4
 40
0.6000000000000001
 40
0.6000000000000001
 40
0.6000000000000001
 40
0.6000000000000001
 40
0.8
 40
0.8
 40
0.8
 40
0.8
 40
1.0
 40
1.0
 40
1.0
 40
1.0
 10
-6.344
 20
-2.5201
 30
0.0
 10
-6.344
 20
-2.5201
 30
0.0
 10
-6.344
 20
-2.5201
 30
0.0
 10
-6.344
 20
-2.5201
 30
0.0
 10
-6.344
 20
-2.5201
 30
0.0
 10
-6.344
 20
-2.5201
 30
0.0
 10
-6.344
 20
-2.4929
 30
0.0
 10
-6.344
 20
-2.4929
 30
0.0
 10
-6.344
 20
-2.4929
 30
0.0
 10
-6.344
 20
-2.4929
 30
0.0
 10
-6.371300000000001
 20
-2.4656
 30
0.0
 10
-6.371300000000001
 20
-2.4656
 30
0.0
 10
-6.371300000000001
 20
-2.4656
 30
0.0
 10
-6.371300000000001
 20
-2.4656
 30
0.0
 10
-6.3985
 20
-2.4383
 30
0.0
 10
-6.3985
 20
-2.4383
 30
0.0
 10
-6.3985
 20
-2.4383
 30
0.0
 10
-6.3985
 20
-2.4383
 30
0.0
 10
-6.425800000000001
 20
-2.4383
 30
0.0
 10
-6.425800000000001
 20
-2.4383
 30
0.0
  0
SPLINE
  5
6D
330
1F
100
AcDbEntity
  8
Ebene 1
370
    13
100
AcDbSpline
210
0.0
220
0.0
230
1.0
 70
    24
 71
     3
 72
     8
 73
     4
 74
     0
 42
0.0000000001
 43
0.0000000001
 40
0.0
 40
0.0
 40
0.0
 40
0.0
 40
1.0
 40
1.0
 40
1.0
 40
1.0
 10
-6.698700000000001
 20
-2.4383
 30
0.0
 10
-6.698700000000001
 20
-2.4383
 30
0.0
 10
-6.425800000000001
 20
-2.4383
 30
0.0
 10
-6.425800000000001
 20
-2.4383
 30
0.0
  0
SPLINE
  5
6E
330
1F
100
AcDbEntity
  8
Ebene 1
370
    13
100
AcDbSpline
210
0.0
220
0.0
230
1.0
 70
    24
 71
     3
 72
     8
 73
     4
 74
     0
 42
0.0000000001
 43
0.0000000001
 40
0.0
 40
0.0
 40
0.0
 40
0.0
 40
1.0
 40
1.0
 40
1.0
 40
1.0
 10
-6.698700000000001
 20
-2.4383
 30
0.0
 10
-6.698700000000001
 20
-2.4383
 30
0.0
 10
-6.698700000000001
 20
-2.6566
 30
0.0
 10
-6.698700000000001
 20
-2.6566
 30
0.0
  0
SPLINE
  5
6F
330
1F
100
AcDbEntity
  8
Ebene 1
370
    13
100
AcDbSpline
210
0.0
220
0.0
230
1.0
 70
     8
 71
     3
 72
    28
 73
    24
 74
     0
 42
0.0000000001
 43
0.0000000001
 40
0.0
 40
0.0
 40
0.0
 40
0.0
 40
0.1666666666666667
 40
0.1666666666666667
 40
0.1666666666666667
 40
0.1666666666666667
 40
0.3333333333333333
 40
0.3333333333333333
 40
0.3333333333333333
 40
0.3333333333333333
 40
0.5
 40
0.5
 40
0.5
 40
0.5
 40
0.6666666666666666
 40
0.6666666666666666
 40
0.6666666666666666
 40
0.6666666666666666
 40
0.8333333333333333
 40
0.8333333333333333
 40
0.8333333333333333
 40
0.8333333333333333
 40
1.0
 40
1.0
 40
1.0
 40
1.0
 10
-6.425800000000001
 20
-2.6566
 30
0.0
 10
-6.425800000000001
 20
-2.6566
 30
0.0
 10
-6.3985
 20
-2.6566
 30
0.0
 10
-6.3985
 20
-2.6566
 30
0.0
 10
-6.3985
 20
-2.6566
 30
0.0
 10
-6.3985
 20
-2.6566
 30
0.0
 10
-6.3985
 20
-2.6293
 30
0.0
 10
-6.3985
 20
-2.6293
 30
0.0
 10
-6.3985
 20
-2.6293
 30
0.0
 10
-6.3985
 20
-2.6293
 30
0.0
 10
-6.371300000000001
 20
-2.6293
 30
0.0
 10
-6.371300000000001
 20
-2.6293
 30
0.0
 10
-6.371300000000001
 20
-2.6293
 30
0.0
 10
-6.371300000000001
 20
-2.6293
 30
0.0
 10
-6.344
 20
-2.602
 30
0.0
 10
-6.344
 20
-2.602
 30
0.0
 10
-6.344
 20
-2.602
 30
0.0
 10
-6.344
 20
-2.602
 30
0.0
 10
-6.344
 20
-2.5747
 30
0.0
 10
-6.344
 20
-2.5747
 30
0.0
 10
-6.344
 20
-2.5747
 30
0.0
 10
-6.344
 20
-2.5747
 30
0.0
 10
-6.344
 20
-2.5474
 30
0.0
 10
-6.344
 20
-2.5474
 30
0.0
  0
SPLINE
  5
70
330
1F
100
AcDbEntity
  8
Ebene 1
370
    13
100
AcDbSpline
210
0.0
220
0.0
230
1.0
 70
    24
 71
     3
 72
     8
 73
     4
 74
     0
 42
0.0000000001
 43
0.0000000001
 40
0.0
 40
0.0
 40
0.0
 40
0.0
 40
1.0
 40
1.0
 40
1.0
 40
1.0
 10
-10.191
 20
-3.2841
 30
0.0
 10
-10.191
 20
-3.2841
 30
0.0
 10
-10.191
 20
-3.0659
 30
0.0
 10
-10.191
 20
-3.0659
 30
0.0
  0
SPLINE
  5
71
330
1F
100
AcDbEntity
  8
Ebene 1
370
    13
100
AcDbSpline
210
0.0
220
0.0
230
1.0
 70
    24
 71
     3
 72
     8
 73
     4
 74
     0
 42
0.0000000001
 43
0.0000000001
 40
0.0
 40
0.0
 40
0.0
 40
0.0
 40
1.0
 40
1.0
 40
1.0
 40
1.0
 10
-10.191
 20
-3.0659
 30
0.0
 10
-10.191
 20
-3.0659
 30
0.0
 10
-10.5457
 20
-3.0659
 30
0.0
 10
-10.5457
 20
-3.0659
 30
0.0
  0
SPLINE
  5
72
330
1F
100
AcDbEntity
  8
Ebene 1
370
    13
100
AcDbSpline
210
0.0
220
0.0
230
1.0
 70
    24
 71
     3
 72
     8
 73
     4
 74
     0
 42
0.0000000001
 43
0.0000000001
 40
0.0
 40
0.0
 40
0.0
 40
0.0
 40
1.0
 40
1.0
 40
1.0
 40
1.0
 10
-10.764
 20
-2.1655
 30
0.0
 10
-10.764
 20
-2.1655
 30
0.0
 10
-10.764
 20
-3.2841
 30
0.0
 10
-10.764
 20
-3.2841
 30
0.0
  0
SPLINE
  5
73
330
1F
100
AcDbEntity
  8
Ebene 1
370
    13
100
AcDbSpline
210
0.0
220
0.0
230
1.0
 70
    24
 71
     3
 72
     8
 73
     4
 74
     0
 42
0.0000000001
 43
0.0000000001
 40
0.0
 40
0.0
 40
0.0
 40
0.0
 40
1.0
 40
1.0
 40
1.0
 40
1.0
 10
-10.764
 20
-3.2841
 30
0.0
 10
-10.764
 20
-3.2841
 30
0.0
 10
-10.191
 20
-3.2841
 30
0.0
 10
-10.191
 20
-3.2841
 30
0.0
  0
SPLINE
  5
74
330
1F
100
AcDbEntity
  8
Ebene 1
370
    13
100
AcDbSpline
210
0.0
220
0.0
230
1.0
 70
    24
 71
     3
 72
     8
 73
     4
 74
     0
 42
0.0000000001
 43
0.0000000001
 40
0.0
 40
0.0
 40
0.0
 40
0.0
 40
1.0
 40
1.0
 40
1.0
 40
1.0
 10
-10.5457
 20
-3.0659
 30
0.0
 10
-10.5457
 20
-3.0659
 30
0.0
 10
-10.5457
 20
-2.1655
 30
0.0
 10
-10.5457
 20
-2.1655
 30
0.0
  0
SPLINE
  5
75
330
1F
100
AcDbEntity
  8
Ebene 1
370
    13
100
AcDbSpline
210
0.0
220
0.0
230
1.0
 70
    24
 71
     3
 72
     8
 73
     4
 74
     0
 42
0.0000000001
 43
0.0000000001
 40
0.0
 40
0.0
 40
0.0
 40
0.0
 40
1.0
 40
1.0
 40
1.0
 40
1.0
 10
-10.5457
 20
-2.1655
 30
0.0
 10
-10.5457
 20
-2.1655
 30
0.0
 10
-10.764
 20
-2.1655
 30
0.0
 10
-10.764
 20
-2.1655
 30
0.0
  0
SPLINE
  5
76
330
1F
100
AcDbEntity
  8
Ebene 1
370
    13
100
AcDbSpline
210
0.0
220
0.0
230
1.0
 70
    24
 71
     3
 72
     8
 73
     4
 74
     0
 42
0.0000000001
 43
0.0000000001
 40
0.0
 40
0.0
 40
0.0
 40
0.0
 40
1.0
 40
1.0
 40
1.0
 40
1.0
 10
-11.6643
 20
-2.1655
 30
0.0
 10
-11.6643
 20
-2.1655
 30
0.0
 10
-11.6643
 20
-3.2841
 30
0.0
 10
-11.6643
 20
-3.2841
 30
0.0
  0
SPLINE
  5
77
330
1F
100
AcDbEntity
  8
Ebene 1
370
    13
100
AcDbSpline
210
0.0
220
0.0
230
1.0
 70
    24
 71
     3
 72
     8
 73
     4
 74
     0
 42
0.0000000001
 43
0.0000000001
 40
0.0
 40
0.0
 40
0.0
 40
0.0
 40
1.0
 40
1.0
 40
1.0
 40
1.0
 10
-11.6643
 20
-3.2841
 30
0.0
 10
-11.6643
 20
-3.2841
 30
0.0
 10
-11.0914
 20
-3.2841
 30
0.0
 10
-11.0914
 20
-3.2841
 30
0.0
  0
SPLINE
  5
78
330
1F
100
AcDbEntity
  8
Ebene 1
370
    13
100
AcDbSpline
210
0.0
220
0.0
230
1.0
 70
    24
 71
     3
 72
     8
 73
     4
 74
     0
 42
0.0000000001
 43
0.0000000001
 40
0.0
 40
0.0
 40
0.0
 40
0.0
 40
1.0
 40
1.0
 40
1.0
 40
1.0
 10
-11.0914
 20
-3.2841
 30
0.0
 10
-11.0914
 20
-3.2841
 30
0.0
 10
-11.0914
 20
-3.0659
 30
0.0
 10
-11.0914
 20
-3.0659
 30
0.0
  0
SPLINE
  5
79
330
1F
100
AcDbEntity
  8
Ebene 1
370
    13
100
AcDbSpline
210
0.0
220
0.0
230
1.0
 70
    24
 71
     3
 72
     8
 73
     4
 74
     0
 42
0.0000000001
 43
0.0000000001
 40
0.0
 40
0.0
 40
0.0
 40
0.0
 40
1.0
 40
1.0
 40
1.0
 40
1.0
 10
-11.0914
 20
-3.0659
 30
0.0
 10
-11.0914
 20
-3.0659
 30
0.0
 10
-11.4461
 20
-3.0659
 30
0.0
 10
-11.4461
 20
-3.0659
 30
0.0
  0
SPLINE
  5
7A
330
1F
100
AcDbEntity
  8
Ebene 1
370
    13
100
AcDbSpline
210
0.0
220
0.0
230
1.0
 70
    24
 71
     3
 72
     8
 73
     4
 74
     0
 42
0.0000000001
 43
0.0000000001
 40
0.0
 40
0.0
 40
0.0
 40
0.0
 40
1.0
 40
1.0
 40
1.0
 40
1.0
 10
-11.4461
 20
-3.0659
 30
0.0
 10
-11.4461
 20
-3.0659
 30
0.0
 10
-11.4461
 20
-2.1655
 30
0.0
 10
-11.4461
 20
-2.1655
 30
0.0
  0
SPLINE
  5
7B
330
1F
100
AcDbEntity
  8
Ebene 1
370
    13
100
AcDbSpline
210
0.0
220
0.0
230
1.0
 70
    24
 71
     3
 72
     8
 73
     4
 74
     0
 42
0.0000000001
 43
0.0000000001
 40
0.0
 40
0.0
 40
0.0
 40
0.0
 40
1.0
 40
1.0
 40
1.0
 40
1.0
 10
-11.4461
 20
-2.1655
 30
0.0
 10
-11.4461
 20
-2.1655
 30
0.0
 10
-11.6643
 20
-2.1655
 30
0.0
 10
-11.6643
 20
-2.1655
 30
0.0
  0
SPLINE
  5
7C
330
1F
100
AcDbEntity
  8
Ebene 1
370
    13
100
AcDbSpline
210
0.0
220
0.0
230
1.0
 70
     8
 71
     3
 72
    24
 73
    20
 74
     0
 42
0.0000000001
 43
0.0000000001
 40
0.0
 40
0.0
 40
0.0
 40
0.0
 40
0.2
 40
0.2
 40
0.2
 40
0.2
 40
0.4
 40
0.4
 40
0.4
 40
0.4
 40
0.6000000000000001
 40
0.6000000000000001
 40
0.6000000000000001
 40
0.6000000000000001
 40
0.8
 40
0.8
 40
0.8
 40
0.8
 40
1.0
 40
1.0
 40
1.0
 40
1.0
 10
-12.2919
 20
-2.5201
 30
0.0
 10
-12.2919
 20
-2.5201
 30
0.0
 10
-12.2919
 20
-2.5201
 30
0.0
 10
-12.2919
 20
-2.5201
 30
0.0
 10
-12.2919
 20
-2.5201
 30
0.0
 10
-12.2919
 20
-2.5201
 30
0.0
 10
-12.2919
 20
-2.4929
 30
0.0
 10
-12.2919
 20
-2.4929
 30
0.0
 10
-12.2919
 20
-2.4929
 30
0.0
 10
-12.2919
 20
-2.4929
 30
0.0
 10
-12.3192
 20
-2.4656
 30
0.0
 10
-12.3192
 20
-2.4656
 30
0.0
 10
-12.3192
 20
-2.4656
 30
0.0
 10
-12.3192
 20
-2.4656
 30
0.0
 10
-12.3465
 20
-2.4383
 30
0.0
 10
-12.3465
 20
-2.4383
 30
0.0
 10
-12.3465
 20
-2.4383
 30
0.0
 10
-12.3465
 20
-2.4383
 30
0.0
 10
-12.3738
 20
-2.4383
 30
0.0
 10
-12.3738
 20
-2.4383
 30
0.0
  0
SPLINE
  5
7D
330
1F
100
AcDbEntity
  8
Ebene 1
370
    13
100
AcDbSpline
210
0.0
220
0.0
230
1.0
 70
    24
 71
     3
 72
     8
 73
     4
 74
     0
 42
0.0000000001
 43
0.0000000001
 40
0.0
 40
0.0
 40
0.0
 40
0.0
 40
1.0
 40
1.0
 40
1.0
 40
1.0
 10
-12.5374
 20
-2.4383
 30
0.0
 10
-12.5374
 20
-2.4383
 30
0.0
 10
-12.3738
 20
-2.4383
 30
0.0
 10
-12.3738
 20
-2.4383
 30
0.0
  0
SPLINE
  5
7E
330
1F
100
AcDbEntity
  8
Ebene 1
370
    13
100
AcDbSpline
210
0.0
220
0.0
230
1.0
 70
     8
 71
     3
 72
    32
 73
    28
 74
     0
 42
0.0000000001
 43
0.0000000001
 40
0.0
 40
0.0
 40
0.0
 40
0.0
 40
0.1428571428571429
 40
0.1428571428571429
 40
0.1428571428571429
 40
0.1428571428571429
 40
0.2857142857142857
 40
0.2857142857142857
 40
0.2857142857142857
 40
0.2857142857142857
 40
0.4285714285714286
 40
0.4285714285714286
 40
0.4285714285714286
 40
0.4285714285714286
 40
0.5714285714285714
 40
0.5714285714285714
 40
0.5714285714285714
 40
0.5714285714285714
 40
0.7142857142857142
 40
0.7142857142857142
 40
0.7142857142857142
 40
0.7142857142857142
 40
0.857142857142857
 40
0.857142857142857
 40
0.857142857142857
 40
0.857142857142857
 40
1.0
 40
1.0
 40
1.0
 40
1.0
 10
-12.5374
 20
-2.4383
 30
0.0
 10
-12.5374
 20
-2.4383
 30
0.0
 10
-12.5647
 20
-2.4383
 30
0.0
 10
-12.5647
 20
-2.4383
 30
0.0
 10
-12.5647
 20
-2.4383
 30
0.0
 10
-12.5647
 20
-2.4383
 30
0.0
 10
-12.592
 20
-2.4383
 30
0.0
 10
-12.592
 20
-2.4383
 30
0.0
 10
-12.592
 20
-2.4383
 30
0.0
 10
-12.592
 20
-2.4383
 30
0.0
 10
-12.592
 20
-2.4656
 30
0.0
 10
-12.592
 20
-2.4656
 30
0.0
 10
-12.592
 20
-2.4656
 30
0.0
 10
-12.592
 20
-2.4656
 30
0.0
 10
-12.6193
 20
-2.4656
 30
0.0
 10
-12.6193
 20
-2.4656
 30
0.0
 10
-12.6193
 20
-2.4656
 30
0.0
 10
-12.6193
 20
-2.4656
 30
0.0
 10
-12.6193
 20
-2.4929
 30
0.0
 10
-12.6193
 20
-2.4929
 30
0.0
 10
-12.6193
 20
-2.4929
 30
0.0
 10
-12.6193
 20
-2.4929
 30
0.0
 10
-12.6465
 20
-2.4929
 30
0.0
 10
-12.6465
 20
-2.4929
 30
0.0
 10
-12.6465
 20
-2.4929
 30
0.0
 10
-12.6465
 20
-2.4929
 30
0.0
 10
-12.6465
 20
-2.5201
 30
0.0
 10
-12.6465
 20
-2.5201
 30
0.0
  0
SPLINE
  5
7F
330
1F
100
AcDbEntity
  8
Ebene 1
370
    13
100
AcDbSpline
210
0.0
220
0.0
230
1.0
 70
    24
 71
     3
 72
     8
 73
     4
 74
     0
 42
0.0000000001
 43
0.0000000001
 40
0.0
 40
0.0
 40
0.0
 40
0.0
 40
1.0
 40
1.0
 40
1.0
 40
1.0
 10
-12.6465
 20
-2.5201
 30
0.0
 10
-12.6465
 20
-2.5201
 30
0.0
 10
-12.6465
 20
-2.6566
 30
0.0
 10
-12.6465
 20
-2.6566
 30
0.0
  0
SPLINE
  5
80
330
1F
100
AcDbEntity
  8
Ebene 1
370
    13
100
AcDbSpline
210
0.0
220
0.0
230
1.0
 70
    24
 71
     3
 72
     8
 73
     4
 74
     0
 42
0.0000000001
 43
0.0000000001
 40
0.0
 40
0.0
 40
0.0
 40
0.0
 40
1.0
 40
1.0
 40
1.0
 40
1.0
 10
-12.6465
 20
-2.6566
 30
0.0
 10
-12.6465
 20
-2.6566
 30
0.0
 10
-12.2919
 20
-2.6566
 30
0.0
 10
-12.2919
 20
-2.6566
 30
0.0
  0
SPLINE
  5
81
330
1F
100
AcDbEntity
  8
Ebene 1
370
    13
100
AcDbSpline
210
0.0
220
0.0
230
1.0
 70
    24
 71
     3
 72
     8
 73
     4
 74
     0
 42
0.0000000001
 43
0.0000000001
 40
0.0
 40
0.0
 40
0.0
 40
0.0
 40
1.0
 40
1.0
 40
1.0
 40
1.0
 10
-12.2919
 20
-2.5201
 30
0.0
 10
-12.2919
 20
-2.5201
 30
0.0
 10
-12.2919
 20
-2.6566
 30
0.0
 10
-12.2919
 20
-2.6566
 30
0.0
  0
SPLINE
  5
82
330
1F
100
AcDbEntity
  8
Ebene 1
370
    13
100
AcDbSpline
210
0.0
220
0.0
230
1.0
 70
     8
 71
     3
 72
    36
 73
    32
 74
     0
 42
0.0000000001
 43
0.0000000001
 40
0.0
 40
0.0
 40
0.0
 40
0.0
 40
0.125
 40
0.125
 40
0.125
 40
0.125
 40
0.25
 40
0.25
 40
0.25
 40
0.25
 40
0.375
 40
0.375
 40
0.375
 40
0.375
 40
0.5
 40
0.5
 40
0.5
 40
0.5
 40
0.625
 40
0.625
 40
0.625
 40
0.625
 40
0.75
 40
0.75
 40
0.75
 40
0.75
 40
0.875
 40
0.875
 40
0.875
 40
0.875
 40
1.0
 40
1.0
 40
1.0
 40
1.0
 10
-13.2469
 20
-2.3292
 30
0.0
 10
-13.2469
 20
-2.3292
 30
0.0
 10
-13.2469
 20
-2.3019
 30
0.0
 10
-13.2469
 20
-2.3019
 30
0.0
 10
-13.2469
 20
-2.3019
 30
0.0
 10
-13.2469
 20
-2.3019
 30
0.0
 10
-13.2741
 20
-2.2746
 30
0.0
 10
-13.2741
 20
-2.2746
 30
0.0
 10
-13.2741
 20
-2.2746
 30
0.0
 10
-13.2741
 20
-2.2746
 30
0.0
 10
-13.2741
 20
-2.2474
 30
0.0
 10
-13.2741
 20
-2.2474
 30
0.0
 10
-13.2741
 20
-2.2474
 30
0.0
 10
-13.2741
 20
-2.2474
 30
0.0
 10
-13.3014
 20
-2.2201
 30
0.0
 10
-13.3014
 20
-2.2201
 30
0.0
 10
-13.3014
 20
-2.2201
 30
0.0
 10
-13.3014
 20
-2.2201
 30
0.0
 10
-13.3287
 20
-2.1928
 30
0.0
 10
-13.3287
 20
-2.1928
 30
0.0
 10
-13.3287
 20
-2.1928
 30
0.0
 10
-13.3287
 20
-2.1928
 30
0.0
 10
-13.356
 20
-2.1655
 30
0.0
 10
-13.356
 20
-2.1655
 30
0.0
 10
-13.356
 20
-2.1655
 30
0.0
 10
-13.356
 20
-2.1655
 30
0.0
 10
-13.4105
 20
-2.1655
 30
0.0
 10
-13.4105
 20
-2.1655
 30
0.0
 10
-13.4105
 20
-2.1655
 30
0.0
 10
-13.4105
 20
-2.1655
 30
0.0
 10
-13.4378
 20
-2.1655
 30
0.0
 10
-13.4378
 20
-2.1655
 30
0.0
  0
SPLINE
  5
83
330
1F
100
AcDbEntity
  8
Ebene 1
370
    13
100
AcDbSpline
210
0.0
220
0.0
230
1.0
 70
     8
 71
     3
 72
    36
 73
    32
 74
     0
 42
0.0000000001
 43
0.0000000001
 40
0.0
 40
0.0
 40
0.0
 40
0.0
 40
0.125
 40
0.125
 40
0.125
 40
0.125
 40
0.25
 40
0.25
 40
0.25
 40
0.25
 40
0.375
 40
0.375
 40
0.375
 40
0.375
 40
0.5
 40
0.5
 40
0.5
 40
0.5
 40
0.625
 40
0.625
 40
0.625
 40
0.625
 40
0.75
 40
0.75
 40
0.75
 40
0.75
 40
0.875
 40
0.875
 40
0.875
 40
0.875
 40
1.0
 40
1.0
 40
1.0
 40
1.0
 10
-13.4378
 20
-3.2841
 30
0.0
 10
-13.4378
 20
-3.2841
 30
0.0
 10
-13.4105
 20
-3.2568
 30
0.0
 10
-13.4105
 20
-3.2568
 30
0.0
 10
-13.4105
 20
-3.2568
 30
0.0
 10
-13.4105
 20
-3.2568
 30
0.0
 10
-13.356
 20
-3.2568
 30
0.0
 10
-13.356
 20
-3.2568
 30
0.0
 10
-13.356
 20
-3.2568
 30
0.0
 10
-13.356
 20
-3.2568
 30
0.0
 10
-13.3287
 20
-3.2296
 30
0.0
 10
-13.3287
 20
-3.2296
 30
0.0
 10
-13.3287
 20
-3.2296
 30
0.0
 10
-13.3287
 20
-3.2296
 30
0.0
 10
-13.3014
 20
-3.2296
 30
0.0
 10
-13.3014
 20
-3.2296
 30
0.0
 10
-13.3014
 20
-3.2296
 30
0.0
 10
-13.3014
 20
-3.2296
 30
0.0
 10
-13.2741
 20
-3.2023
 30
0.0
 10
-13.2741
 20
-3.2023
 30
0.0
 10
-13.2741
 20
-3.2023
 30
0.0
 10
-13.2741
 20
-3.2023
 30
0.0
 10
-13.2741
 20
-3.1477
 30
0.0
 10
-13.2741
 20
-3.1477
 30
0.0
 10
-13.2741
 20
-3.1477
 30
0.0
 10
-13.2741
 20
-3.1477
 30
0.0
 10
-13.2469
 20
-3.1205
 30
0.0
 10
-13.2469
 20
-3.1205
 30
0.0
 10
-13.2469
 20
-3.1205
 30
0.0
 10
-13.2469
 20
-3.1205
 30
0.0
 10
-13.2469
 20
-3.0932
 30
0.0
 10
-13.2469
 20
-3.0932
 30
0.0
  0
SPLINE
  5
84
330
1F
100
AcDbEntity
  8
Ebene 1
370
    13
100
AcDbSpline
210
0.0
220
0.0
230
1.0
 70
    24
 71
     3
 72
     8
 73
     4
 74
     0
 42
0.0000000001
 43
0.0000000001
 40
0.0
 40
0.0
 40
0.0
 40
0.0
 40
1.0
 40
1.0
 40
1.0
 40
1.0
 10
-13.2469
 20
-3.0932
 30
0.0
 10
-13.2469
 20
-3.0932
 30
0.0
 10
-13.2469
 20
-2.3292
 30
0.0
 10
-13.2469
 20
-2.3292
 30
0.0
  0
SPLINE
  5
85
330
1F
100
AcDbEntity
  8
Ebene 1
370
    13
100
AcDbSpline
210
0.0
220
0.0
230
1.0
 70
    24
 71
     3
 72
     8
 73
     4
 74
     0
 42
0.0000000001
 43
0.0000000001
 40
0.0
 40
0.0
 40
0.0
 40
0.0
 40
1.0
 40
1.0
 40
1.0
 40
1.0
 10
-13.4378
 20
-2.1655
 30
0.0
 10
-13.4378
 20
-2.1655
 30
0.0
 10
-14.0108
 20
-2.1655
 30
0.0
 10
-14.0108
 20
-2.1655
 30
0.0
  0
SPLINE
  5
86
330
1F
100
AcDbEntity
  8
Ebene 1
370
    13
100
AcDbSpline
210
0.0
220
0.0
230
1.0
 70
    24
 71
     3
 72
     8
 73
     4
 74
     0
 42
0.0000000001
 43
0.0000000001
 40
0.0
 40
0.0
 40
0.0
 40
0.0
 40
1.0
 40
1.0
 40
1.0
 40
1.0
 10
-14.0108
 20
-2.1655
 30
0.0
 10
-14.0108
 20
-2.1655
 30
0.0
 10
-14.0108
 20
-3.2841
 30
0.0
 10
-14.0108
 20
-3.2841
 30
0.0
  0
SPLINE
  5
87
330
1F
100
AcDbEntity
  8
Ebene 1
370
    13
100
AcDbSpline
210
0.0
220
0.0
230
1.0
 70
    24
 71
     3
 72
     8
 73
     4
 74
     0
 42
0.0000000001
 43
0.0000000001
 40
0.0
 40
0.0
 40
0.0
 40
0.0
 40
1.0
 40
1.0
 40
1.0
 40
1.0
 10
-14.0108
 20
-3.2841
 30
0.0
 10
-14.0108
 20
-3.2841
 30
0.0
 10
-13.4378
 20
-3.2841
 30
0.0
 10
-13.4378
 20
-3.2841
 30
0.0
  0
SPLINE
  5
88
330
1F
100
AcDbEntity
  8
Ebene 1
370
    13
100
AcDbSpline
210
0.0
220
0.0
230
1.0
 70
    24
 71
     3
 72
     8
 73
     4
 74
     0
 42
0.0000000001
 43
0.0000000001
 40
0.0
 40
0.0
 40
0.0
 40
0.0
 40
1.0
 40
1.0
 40
1.0
 40
1.0
 10
-13.7925
 20
-2.3838
 30
0.0
 10
-13.7925
 20
-2.3838
 30
0.0
 10
-13.6288
 20
-2.3838
 30
0.0
 10
-13.6288
 20
-2.3838
 30
0.0
  0
SPLINE
  5
89
330
1F
100
AcDbEntity
  8
Ebene 1
370
    13
100
AcDbSpline
210
0.0
220
0.0
230
1.0
 70
    24
 71
     3
 72
     8
 73
     4
 74
     0
 42
0.0000000001
 43
0.0000000001
 40
0.0
 40
0.0
 40
0.0
 40
0.0
 40
1.0
 40
1.0
 40
1.0
 40
1.0
 10
-13.7925
 20
-3.0659
 30
0.0
 10
-13.7925
 20
-3.0659
 30
0.0
 10
-13.7925
 20
-2.3838
 30
0.0
 10
-13.7925
 20
-2.3838
 30
0.0
  0
SPLINE
  5
8A
330
1F
100
AcDbEntity
  8
Ebene 1
370
    13
100
AcDbSpline
210
0.0
220
0.0
230
1.0
 70
    24
 71
     3
 72
     8
 73
     4
 74
     0
 42
0.0000000001
 43
0.0000000001
 40
0.0
 40
0.0
 40
0.0
 40
0.0
 40
1.0
 40
1.0
 40
1.0
 40
1.0
 10
-13.6288
 20
-3.0659
 30
0.0
 10
-13.6288
 20
-3.0659
 30
0.0
 10
-13.7925
 20
-3.0659
 30
0.0
 10
-13.7925
 20
-3.0659
 30
0.0
  0
SPLINE
  5
8B
330
1F
100
AcDbEntity
  8
Ebene 1
370
    13
100
AcDbSpline
210
0.0
220
0.0
230
1.0
 70
     8
 71
     3
 72
    36
 73
    32
 74
     0
 42
0.0000000001
 43
0.0000000001
 40
0.0
 40
0.0
 40
0.0
 40
0.0
 40
0.125
 40
0.125
 40
0.125
 40
0.125
 40
0.25
 40
0.25
 40
0.25
 40
0.25
 40
0.375
 40
0.375
 40
0.375
 40
0.375
 40
0.5
 40
0.5
 40
0.5
 40
0.5
 40
0.625
 40
0.625
 40
0.625
 40
0.625
 40
0.75
 40
0.75
 40
0.75
 40
0.75
 40
0.875
 40
0.875
 40
0.875
 40
0.875
 40
1.0
 40
1.0
 40
1.0
 40
1.0
 10
-13.6288
 20
-3.0659
 30
0.0
 10
-13.6288
 20
-3.0659
 30
0.0
 10
-13.6015
 20
-3.0386
 30
0.0
 10
-13.6015
 20
-3.0386
 30
0.0
 10
-13.6015
 20
-3.0386
 30
0.0
 10
-13.6015
 20
-3.0386
 30
0.0
 10
-13.5742
 20
-3.0386
 30
0.0
 10
-13.5742
 20
-3.0386
 30
0.0
 10
-13.5742
 20
-3.0386
 30
0.0
 10
-13.5742
 20
-3.0386
 30
0.0
 10
-13.5469
 20
-3.0386
 30
0.0
 10
-13.5469
 20
-3.0386
 30
0.0
 10
-13.5469
 20
-3.0386
 30
0.0
 10
-13.5469
 20
-3.0386
 30
0.0
 10
-13.5196
 20
-3.0113
 30
0.0
 10
-13.5196
 20
-3.0113
 30
0.0
 10
-13.5196
 20
-3.0113
 30
0.0
 10
-13.5196
 20
-3.0113
 30
0.0
 10
-13.4924
 20
-2.984
 30
0.0
 10
-13.4924
 20
-2.984
 30
0.0
 10
-13.4924
 20
-2.984
 30
0.0
 10
-13.4924
 20
-2.984
 30
0.0
 10
-13.4924
 20
-2.9567
 30
0.0
 10
-13.4924
 20
-2.9567
 30
0.0
 10
-13.4924
 20
-2.9567
 30
0.0
 10
-13.4924
 20
-2.9567
 30
0.0
 10
-13.4651
 20
-2.9294
 30
0.0
 10
-13.4651
 20
-2.9294
 30
0.0
 10
-13.4651
 20
-2.9294
 30
0.0
 10
-13.4651
 20
-2.9294
 30
0.0
 10
-13.4651
 20
-2.9021
 30
0.0
 10
-13.4651
 20
-2.9021
 30
0.0
  0
SPLINE
  5
8C
330
1F
100
AcDbEntity
  8
Ebene 1
370
    13
100
AcDbSpline
210
0.0
220
0.0
230
1.0
 70
    24
 71
     3
 72
     8
 73
     4
 74
     0
 42
0.0000000001
 43
0.0000000001
 40
0.0
 40
0.0
 40
0.0
 40
0.0
 40
1.0
 40
1.0
 40
1.0
 40
1.0
 10
-13.4651
 20
-2.5201
 30
0.0
 10
-13.4651
 20
-2.5201
 30
0.0
 10
-13.4651
 20
-2.9021
 30
0.0
 10
-13.4651
 20
-2.9021
 30
0.0
  0
SPLINE
  5
8D
330
1F
100
AcDbEntity
  8
Ebene 1
370
    13
100
AcDbSpline
210
0.0
220
0.0
230
1.0
 70
     8
 71
     3
 72
    36
 73
    32
 74
     0
 42
0.0000000001
 43
0.0000000001
 40
0.0
 40
0.0
 40
0.0
 40
0.0
 40
0.125
 40
0.125
 40
0.125
 40
0.125
 40
0.25
 40
0.25
 40
0.25
 40
0.25
 40
0.375
 40
0.375
 40
0.375
 40
0.375
 40
0.5
 40
0.5
 40
0.5
 40
0.5
 40
0.625
 40
0.625
 40
0.625
 40
0.625
 40
0.75
 40
0.75
 40
0.75
 40
0.75
 40
0.875
 40
0.875
 40
0.875
 40
0.875
 40
1.0
 40
1.0
 40
1.0
 40
1.0
 10
-13.4651
 20
-2.5201
 30
0.0
 10
-13.4651
 20
-2.5201
 30
0.0
 10
-13.4651
 20
-2.4929
 30
0.0
 10
-13.4651
 20
-2.4929
 30
0.0
 10
-13.4651
 20
-2.4929
 30
0.0
 10
-13.4651
 20
-2.4929
 30
0.0
 10
-13.4924
 20
-2.4656
 30
0.0
 10
-13.4924
 20
-2.4656
 30
0.0
 10
-13.4924
 20
-2.4656
 30
0.0
 10
-13.4924
 20
-2.4656
 30
0.0
 10
-13.4924
 20
-2.4383
 30
0.0
 10
-13.4924
 20
-2.4383
 30
0.0
 10
-13.4924
 20
-2.4383
 30
0.0
 10
-13.4924
 20
-2.4383
 30
0.0
 10
-13.5196
 20
-2.411
 30
0.0
 10
-13.5196
 20
-2.411
 30
0.0
 10
-13.5196
 20
-2.411
 30
0.0
 10
-13.5196
 20
-2.411
 30
0.0
 10
-13.5469
 20
-2.411
 30
0.0
 10
-13.5469
 20
-2.411
 30
0.0
 10
-13.5469
 20
-2.411
 30
0.0
 10
-13.5469
 20
-2.411
 30
0.0
 10
-13.5742
 20
-2.3838
 30
0.0
 10
-13.5742
 20
-2.3838
 30
0.0
 10
-13.5742
 20
-2.3838
 30
0.0
 10
-13.5742
 20
-2.3838
 30
0.0
 10
-13.6015
 20
-2.3838
 30
0.0
 10
-13.6015
 20
-2.3838
 30
0.0
 10
-13.6015
 20
-2.3838
 30
0.0
 10
-13.6015
 20
-2.3838
 30
0.0
 10
-13.6288
 20
-2.3838
 30
0.0
 10
-13.6288
 20
-2.3838
 30
0.0
  0
SPLINE
  5
8E
330
1F
100
AcDbEntity
  8
Ebene 1
370
    13
100
AcDbSpline
210
0.0
220
0.0
230
1.0
 70
    24
 71
     3
 72
     8
 73
     4
 74
     0
 42
0.0000000001
 43
0.0000000001
 40
0.0
 40
0.0
 40
0.0
 40
0.0
 40
1.0
 40
1.0
 40
1.0
 40
1.0
 10
-13.5469
 20
-2.5201
 30
0.0
 10
-13.5469
 20
-2.5201
 30
0.0
 10
-13.5469
 20
-2.9021
 30
0.0
 10
-13.5469
 20
-2.9021
 30
0.0
  0
SPLINE
  5
8F
330
1F
100
AcDbEntity
  8
Ebene 1
370
    13
100
AcDbSpline
210
0.0
220
0.0
230
1.0
 70
     8
 71
     3
 72
    24
 73
    20
 74
     0
 42
0.0000000001
 43
0.0000000001
 40
0.0
 40
0.0
 40
0.0
 40
0.0
 40
0.2
 40
0.2
 40
0.2
 40
0.2
 40
0.4
 40
0.4
 40
0.4
 40
0.4
 40
0.6000000000000001
 40
0.6000000000000001
 40
0.6000000000000001
 40
0.6000000000000001
 40
0.8
 40
0.8
 40
0.8
 40
0.8
 40
1.0
 40
1.0
 40
1.0
 40
1.0
 10
-13.5469
 20
-2.5201
 30
0.0
 10
-13.5469
 20
-2.5201
 30
0.0
 10
-13.5469
 20
-2.5201
 30
0.0
 10
-13.5469
 20
-2.5201
 30
0.0
 10
-13.5469
 20
-2.5201
 30
0.0
 10
-13.5469
 20
-2.5201
 30
0.0
 10
-13.5469
 20
-2.4929
 30
0.0
 10
-13.5469
 20
-2.4929
 30
0.0
 10
-13.5469
 20
-2.4929
 30
0.0
 10
-13.5469
 20
-2.4929
 30
0.0
 10
-13.5742
 20
-2.4656
 30
0.0
 10
-13.5742
 20
-2.4656
 30
0.0
 10
-13.5742
 20
-2.4656
 30
0.0
 10
-13.5742
 20
-2.4656
 30
0.0
 10
-13.6015
 20
-2.4383
 30
0.0
 10
-13.6015
 20
-2.4383
 30
0.0
 10
-13.6015
 20
-2.4383
 30
0.0
 10
-13.6015
 20
-2.4383
 30
0.0
 10
-13.6288
 20
-2.4383
 30
0.0
 10
-13.6288
 20
-2.4383
 30
0.0
  0
SPLINE
  5
90
330
1F
100
AcDbEntity
  8
Ebene 1
370
    13
100
AcDbSpline
210
0.0
220
0.0
230
1.0
 70
    24
 71
     3
 72
     8
 73
     4
 74
     0
 42
0.0000000001
 43
0.0000000001
 40
0.0
 40
0.0
 40
0.0
 40
0.0
 40
1.0
 40
1.0
 40
1.0
 40
1.0
 10
-13.7107
 20
-2.4383
 30
0.0
 10
-13.7107
 20
-2.4383
 30
0.0
 10
-13.6288
 20
-2.4383
 30
0.0
 10
-13.6288
 20
-2.4383
 30
0.0
  0
SPLINE
  5
91
330
1F
100
AcDbEntity
  8
Ebene 1
370
    13
100
AcDbSpline
210
0.0
220
0.0
230
1.0
 70
    24
 71
     3
 72
     8
 73
     4
 74
     0
 42
0.0000000001
 43
0.0000000001
 40
0.0
 40
0.0
 40
0.0
 40
0.0
 40
1.0
 40
1.0
 40
1.0
 40
1.0
 10
-13.7107
 20
-2.4383
 30
0.0
 10
-13.7107
 20
-2.4383
 30
0.0
 10
-13.7107
 20
-2.984
 30
0.0
 10
-13.7107
 20
-2.984
 30
0.0
  0
SPLINE
  5
92
330
1F
100
AcDbEntity
  8
Ebene 1
370
    13
100
AcDbSpline
210
0.0
220
0.0
230
1.0
 70
    24
 71
     3
 72
     8
 73
     4
 74
     0
 42
0.0000000001
 43
0.0000000001
 40
0.0
 40
0.0
 40
0.0
 40
0.0
 40
1.0
 40
1.0
 40
1.0
 40
1.0
 10
-13.7107
 20
-2.984
 30
0.0
 10
-13.7107
 20
-2.984
 30
0.0
 10
-13.6288
 20
-2.984
 30
0.0
 10
-13.6288
 20
-2.984
 30
0.0
  0
SPLINE
  5
93
330
1F
100
AcDbEntity
  8
Ebene 1
370
    13
100
AcDbSpline
210
0.0
220
0.0
230
1.0
 70
     8
 71
     3
 72
    20
 73
    16
 74
     0
 42
0.0000000001
 43
0.0000000001
 40
0.0
 40
0.0
 40
0.0
 40
0.0
 40
0.25
 40
0.25
 40
0.25
 40
0.25
 40
0.5
 40
0.5
 40
0.5
 40
0.5
 40
0.75
 40
0.75
 40
0.75
 40
0.75
 40
1.0
 40
1.0
 40
1.0
 40
1.0
 10
-13.6288
 20
-2.984
 30
0.0
 10
-13.6288
 20
-2.984
 30
0.0
 10
-13.6015
 20
-2.984
 30
0.0
 10
-13.6015
 20
-2.984
 30
0.0
 10
-13.6015
 20
-2.984
 30
0.0
 10
-13.6015
 20
-2.984
 30
0.0
 10
-13.5742
 20
-2.9567
 30
0.0
 10
-13.5742
 20
-2.9567
 30
0.0
 10
-13.5742
 20
-2.9567
 30
0.0
 10
-13.5742
 20
-2.9567
 30
0.0
 10
-13.5469
 20
-2.9294
 30
0.0
 10
-13.5469
 20
-2.9294
 30
0.0
 10
-13.5469
 20
-2.9294
 30
0.0
 10
-13.5469
 20
-2.9294
 30
0.0
 10
-13.5469
 20
-2.9021
 30
0.0
 10
-13.5469
 20
-2.9021
 30
0.0
  0
SPLINE
  5
94
330
1F
100
AcDbEntity
  8
Ebene 1
370
    13
100
AcDbSpline
210
0.0
220
0.0
230
1.0
 70
    24
 71
     3
 72
     8
 73
     4
 74
     0
 42
0.0000000001
 43
0.0000000001
 40
0.0
 40
0.0
 40
0.0
 40
0.0
 40
1.0
 40
1.0
 40
1.0
 40
1.0
 10
-9.2361
 20
-3.2841
 30
0.0
 10
-9.2361
 20
-3.2841
 30
0.0
 10
-9.017800000000001
 20
-3.2841
 30
0.0
 10
-9.017800000000001
 20
-3.2841
 30
0.0
  0
SPLINE
  5
95
330
1F
100
AcDbEntity
  8
Ebene 1
370
    13
100
AcDbSpline
210
0.0
220
0.0
230
1.0
 70
    24
 71
     3
 72
     8
 73
     4
 74
     0
 42
0.0000000001
 43
0.0000000001
 40
0.0
 40
0.0
 40
0.0
 40
0.0
 40
1.0
 40
1.0
 40
1.0
 40
1.0
 10
-8.608500000000001
 20
-2.5201
 30
0.0
 10
-8.608500000000001
 20
-2.5201
 30
0.0
 10
-8.608500000000001
 20
-3.2841
 30
0.0
 10
-8.608500000000001
 20
-3.2841
 30
0.0
  0
SPLINE
  5
96
330
1F
100
AcDbEntity
  8
Ebene 1
370
    13
100
AcDbSpline
210
0.0
220
0.0
230
1.0
 70
     8
 71
     3
 72
    36
 73
    32
 74
     0
 42
0.0000000001
 43
0.0000000001
 40
0.0
 40
0.0
 40
0.0
 40
0.0
 40
0.125
 40
0.125
 40
0.125
 40
0.125
 40
0.25
 40
0.25
 40
0.25
 40
0.25
 40
0.375
 40
0.375
 40
0.375
 40
0.375
 40
0.5
 40
0.5
 40
0.5
 40
0.5
 40
0.625
 40
0.625
 40
0.625
 40
0.625
 40
0.75
 40
0.75
 40
0.75
 40
0.75
 40
0.875
 40
0.875
 40
0.875
 40
0.875
 40
1.0
 40
1.0
 40
1.0
 40
1.0
 10
-8.963200000000001
 20
-2.1655
 30
0.0
 10
-8.963200000000001
 20
-2.1655
 30
0.0
 10
-8.990500000000001
 20
-2.1655
 30
0.0
 10
-8.990500000000001
 20
-2.1655
 30
0.0
 10
-8.990500000000001
 20
-2.1655
 30
0.0
 10
-8.990500000000001
 20
-2.1655
 30
0.0
 10
-9.017800000000001
 20
-2.1655
 30
0.0
 10
-9.017800000000001
 20
-2.1655
 30
0.0
 10
-9.017800000000001
 20
-2.1655
 30
0.0
 10
-9.017800000000001
 20
-2.1655
 30
0.0
 10
-9.0451
 20
-2.1655
 30
0.0
 10
-9.0451
 20
-2.1655
 30
0.0
 10
-9.0451
 20
-2.1655
 30
0.0
 10
-9.0451
 20
-2.1655
 30
0.0
 10
-9.0724
 20
-2.1928
 30
0.0
 10
-9.0724
 20
-2.1928
 30
0.0
 10
-9.0724
 20
-2.1928
 30
0.0
 10
-9.0724
 20
-2.1928
 30
0.0
 10
-9.099600000000001
 20
-2.2201
 30
0.0
 10
-9.099600000000001
 20
-2.2201
 30
0.0
 10
-9.099600000000001
 20
-2.2201
 30
0.0
 10
-9.099600000000001
 20
-2.2201
 30
0.0
 10
-9.099600000000001
 20
-2.2474
 30
0.0
 10
-9.099600000000001
 20
-2.2474
 30
0.0
 10
-9.099600000000001
 20
-2.2474
 30
0.0
 10
-9.099600000000001
 20
-2.2474
 30
0.0
 10
-9.126900000000001
 20
-2.2746
 30
0.0
 10
-9.126900000000001
 20
-2.2746
 30
0.0
 10
-9.126900000000001
 20
-2.2746
 30
0.0
 10
-9.126900000000001
 20
-2.2746
 30
0.0
 10
-9.126900000000001
 20
-2.3019
 30
0.0
 10
-9.126900000000001
 20
-2.3019
 30
0.0
  0
SPLINE
  5
97
330
1F
100
AcDbEntity
  8
Ebene 1
370
    13
100
AcDbSpline
210
0.0
220
0.0
230
1.0
 70
    24
 71
     3
 72
     8
 73
     4
 74
     0
 42
0.0000000001
 43
0.0000000001
 40
0.0
 40
0.0
 40
0.0
 40
0.0
 40
1.0
 40
1.0
 40
1.0
 40
1.0
 10
-9.8636
 20
-3.2841
 30
0.0
 10
-9.8636
 20
-3.2841
 30
0.0
 10
-9.645300000000001
 20
-3.2841
 30
0.0
 10
-9.645300000000001
 20
-3.2841
 30
0.0
  0
SPLINE
  5
98
330
1F
100
AcDbEntity
  8
Ebene 1
370
    13
100
AcDbSpline
210
0.0
220
0.0
230
1.0
 70
     8
 71
     3
 72
    36
 73
    32
 74
     0
 42
0.0000000001
 43
0.0000000001
 40
0.0
 40
0.0
 40
0.0
 40
0.0
 40
0.125
 40
0.125
 40
0.125
 40
0.125
 40
0.25
 40
0.25
 40
0.25
 40
0.25
 40
0.375
 40
0.375
 40
0.375
 40
0.375
 40
0.5
 40
0.5
 40
0.5
 40
0.5
 40
0.625
 40
0.625
 40
0.625
 40
0.625
 40
0.75
 40
0.75
 40
0.75
 40
0.75
 40
0.875
 40
0.875
 40
0.875
 40
0.875
 40
1.0
 40
1.0
 40
1.0
 40
1.0
 10
-9.4816
 20
-2.3838
 30
0.0
 10
-9.4816
 20
-2.3838
 30
0.0
 10
-9.508900000000001
 20
-2.3838
 30
0.0
 10
-9.508900000000001
 20
-2.3838
 30
0.0
 10
-9.508900000000001
 20
-2.3838
 30
0.0
 10
-9.508900000000001
 20
-2.3838
 30
0.0
 10
-9.563500000000001
 20
-2.3838
 30
0.0
 10
-9.563500000000001
 20
-2.3838
 30
0.0
 10
-9.563500000000001
 20
-2.3838
 30
0.0
 10
-9.563500000000001
 20
-2.3838
 30
0.0
 10
-9.5907
 20
-2.411
 30
0.0
 10
-9.5907
 20
-2.411
 30
0.0
 10
-9.5907
 20
-2.411
 30
0.0
 10
-9.5907
 20
-2.411
 30
0.0
 10
-9.618
 20
-2.411
 30
0.0
 10
-9.618
 20
-2.411
 30
0.0
 10
-9.618
 20
-2.411
 30
0.0
 10
-9.618
 20
-2.411
 30
0.0
 10
-9.618
 20
-2.4383
 30
0.0
 10
-9.618
 20
-2.4383
 30
0.0
 10
-9.618
 20
-2.4383
 30
0.0
 10
-9.618
 20
-2.4383
 30
0.0
 10
-9.645300000000001
 20
-2.4656
 30
0.0
 10
-9.645300000000001
 20
-2.4656
 30
0.0
 10
-9.645300000000001
 20
-2.4656
 30
0.0
 10
-9.645300000000001
 20
-2.4656
 30
0.0
 10
-9.645300000000001
 20
-2.4929
 30
0.0
 10
-9.645300000000001
 20
-2.4929
 30
0.0
 10
-9.645300000000001
 20
-2.4929
 30
0.0
 10
-9.645300000000001
 20
-2.4929
 30
0.0
 10
-9.645300000000001
 20
-2.5201
 30
0.0
 10
-9.645300000000001
 20
-2.5201
 30
0.0
  0
SPLINE
  5
99
330
1F
100
AcDbEntity
  8
Ebene 1
370
    13
100
AcDbSpline
210
0.0
220
0.0
230
1.0
 70
    24
 71
     3
 72
     8
 73
     4
 74
     0
 42
0.0000000001
 43
0.0000000001
 40
0.0
 40
0.0
 40
0.0
 40
0.0
 40
1.0
 40
1.0
 40
1.0
 40
1.0
 10
-9.4816
 20
-2.3838
 30
0.0
 10
-9.4816
 20
-2.3838
 30
0.0
 10
-9.399800000000001
 20
-2.3838
 30
0.0
 10
-9.399800000000001
 20
-2.3838
 30
0.0
  0
SPLINE
  5
9A
330
1F
100
AcDbEntity
  8
Ebene 1
370
    13
100
AcDbSpline
210
0.0
220
0.0
230
1.0
 70
     8
 71
     3
 72
    36
 73
    32
 74
     0
 42
0.0000000001
 43
0.0000000001
 40
0.0
 40
0.0
 40
0.0
 40
0.0
 40
0.125
 40
0.125
 40
0.125
 40
0.125
 40
0.25
 40
0.25
 40
0.25
 40
0.25
 40
0.375
 40
0.375
 40
0.375
 40
0.375
 40
0.5
 40
0.5
 40
0.5
 40
0.5
 40
0.625
 40
0.625
 40
0.625
 40
0.625
 40
0.75
 40
0.75
 40
0.75
 40
0.75
 40
0.875
 40
0.875
 40
0.875
 40
0.875
 40
1.0
 40
1.0
 40
1.0
 40
1.0
 10
-9.2361
 20
-2.5201
 30
0.0
 10
-9.2361
 20
-2.5201
 30
0.0
 10
-9.2361
 20
-2.4929
 30
0.0
 10
-9.2361
 20
-2.4929
 30
0.0
 10
-9.2361
 20
-2.4929
 30
0.0
 10
-9.2361
 20
-2.4929
 30
0.0
 10
-9.263400000000001
 20
-2.4656
 30
0.0
 10
-9.263400000000001
 20
-2.4656
 30
0.0
 10
-9.263400000000001
 20
-2.4656
 30
0.0
 10
-9.263400000000001
 20
-2.4656
 30
0.0
 10
-9.263400000000001
 20
-2.4383
 30
0.0
 10
-9.263400000000001
 20
-2.4383
 30
0.0
 10
-9.263400000000001
 20
-2.4383
 30
0.0
 10
-9.263400000000001
 20
-2.4383
 30
0.0
 10
-9.290700000000001
 20
-2.411
 30
0.0
 10
-9.290700000000001
 20
-2.411
 30
0.0
 10
-9.290700000000001
 20
-2.411
 30
0.0
 10
-9.290700000000001
 20
-2.411
 30
0.0
 10
-9.318
 20
-2.411
 30
0.0
 10
-9.318
 20
-2.411
 30
0.0
 10
-9.318
 20
-2.411
 30
0.0
 10
-9.318
 20
-2.411
 30
0.0
 10
-9.3452
 20
-2.3838
 30
0.0
 10
-9.3452
 20
-2.3838
 30
0.0
 10
-9.3452
 20
-2.3838
 30
0.0
 10
-9.3452
 20
-2.3838
 30
0.0
 10
-9.372500000000001
 20
-2.3838
 30
0.0
 10
-9.372500000000001
 20
-2.3838
 30
0.0
 10
-9.372500000000001
 20
-2.3838
 30
0.0
 10
-9.372500000000001
 20
-2.3838
 30
0.0
 10
-9.399800000000001
 20
-2.3838
 30
0.0
 10
-9.399800000000001
 20
-2.3838
 30
0.0
  0
SPLINE
  5
9B
330
1F
100
AcDbEntity
  8
Ebene 1
370
    13
100
AcDbSpline
210
0.0
220
0.0
230
1.0
 70
    24
 71
     3
 72
     8
 73
     4
 74
     0
 42
0.0000000001
 43
0.0000000001
 40
0.0
 40
0.0
 40
0.0
 40
0.0
 40
1.0
 40
1.0
 40
1.0
 40
1.0
 10
-9.2361
 20
-2.5201
 30
0.0
 10
-9.2361
 20
-2.5201
 30
0.0
 10
-9.2361
 20
-3.2841
 30
0.0
 10
-9.2361
 20
-3.2841
 30
0.0
  0
SPLINE
  5
9C
330
1F
100
AcDbEntity
  8
Ebene 1
370
    13
100
AcDbSpline
210
0.0
220
0.0
230
1.0
 70
    24
 71
     3
 72
     8
 73
     4
 74
     0
 42
0.0000000001
 43
0.0000000001
 40
0.0
 40
0.0
 40
0.0
 40
0.0
 40
1.0
 40
1.0
 40
1.0
 40
1.0
 10
-9.017800000000001
 20
-3.2841
 30
0.0
 10
-9.017800000000001
 20
-3.2841
 30
0.0
 10
-9.017800000000001
 20
-2.5201
 30
0.0
 10
-9.017800000000001
 20
-2.5201
 30
0.0
  0
SPLINE
  5
9D
330
1F
100
AcDbEntity
  8
Ebene 1
370
    13
100
AcDbSpline
210
0.0
220
0.0
230
1.0
 70
     8
 71
     3
 72
    32
 73
    28
 74
     0
 42
0.0000000001
 43
0.0000000001
 40
0.0
 40
0.0
 40
0.0
 40
0.0
 40
0.1428571428571429
 40
0.1428571428571429
 40
0.1428571428571429
 40
0.1428571428571429
 40
0.2857142857142857
 40
0.2857142857142857
 40
0.2857142857142857
 40
0.2857142857142857
 40
0.4285714285714286
 40
0.4285714285714286
 40
0.4285714285714286
 40
0.4285714285714286
 40
0.5714285714285714
 40
0.5714285714285714
 40
0.5714285714285714
 40
0.5714285714285714
 40
0.7142857142857142
 40
0.7142857142857142
 40
0.7142857142857142
 40
0.7142857142857142
 40
0.857142857142857
 40
0.857142857142857
 40
0.857142857142857
 40
0.857142857142857
 40
1.0
 40
1.0
 40
1.0
 40
1.0
 10
-8.854100000000001
 20
-2.3838
 30
0.0
 10
-8.854100000000001
 20
-2.3838
 30
0.0
 10
-8.881400000000001
 20
-2.3838
 30
0.0
 10
-8.881400000000001
 20
-2.3838
 30
0.0
 10
-8.881400000000001
 20
-2.3838
 30
0.0
 10
-8.881400000000001
 20
-2.3838
 30
0.0
 10
-8.9087
 20
-2.3838
 30
0.0
 10
-8.9087
 20
-2.3838
 30
0.0
 10
-8.9087
 20
-2.3838
 30
0.0
 10
-8.9087
 20
-2.3838
 30
0.0
 10
-8.963200000000001
 20
-2.411
 30
0.0
 10
-8.963200000000001
 20
-2.411
 30
0.0
 10
-8.963200000000001
 20
-2.411
 30
0.0
 10
-8.963200000000001
 20
-2.411
 30
0.0
 10
-8.990500000000001
 20
-2.4383
 30
0.0
 10
-8.990500000000001
 20
-2.4383
 30
0.0
 10
-8.990500000000001
 20
-2.4383
 30
0.0
 10
-8.990500000000001
 20
-2.4383
 30
0.0
 10
-9.017800000000001
 20
-2.4656
 30
0.0
 10
-9.017800000000001
 20
-2.4656
 30
0.0
 10
-9.017800000000001
 20
-2.4656
 30
0.0
 10
-9.017800000000001
 20
-2.4656
 30
0.0
 10
-9.017800000000001
 20
-2.4929
 30
0.0
 10
-9.017800000000001
 20
-2.4929
 30
0.0
 10
-9.017800000000001
 20
-2.4929
 30
0.0
 10
-9.017800000000001
 20
-2.4929
 30
0.0
 10
-9.017800000000001
 20
-2.5201
 30
0.0
 10
-9.017800000000001
 20
-2.5201
 30
0.0
  0
SPLINE
  5
9E
330
1F
100
AcDbEntity
  8
Ebene 1
370
    13
100
AcDbSpline
210
0.0
220
0.0
230
1.0
 70
    24
 71
     3
 72
     8
 73
     4
 74
     0
 42
0.0000000001
 43
0.0000000001
 40
0.0
 40
0.0
 40
0.0
 40
0.0
 40
1.0
 40
1.0
 40
1.0
 40
1.0
 10
-8.854100000000001
 20
-2.3838
 30
0.0
 10
-8.854100000000001
 20
-2.3838
 30
0.0
 10
-8.7722
 20
-2.3838
 30
0.0
 10
-8.7722
 20
-2.3838
 30
0.0
  0
SPLINE
  5
9F
330
1F
100
AcDbEntity
  8
Ebene 1
370
    13
100
AcDbSpline
210
0.0
220
0.0
230
1.0
 70
     8
 71
     3
 72
    36
 73
    32
 74
     0
 42
0.0000000001
 43
0.0000000001
 40
0.0
 40
0.0
 40
0.0
 40
0.0
 40
0.125
 40
0.125
 40
0.125
 40
0.125
 40
0.25
 40
0.25
 40
0.25
 40
0.25
 40
0.375
 40
0.375
 40
0.375
 40
0.375
 40
0.5
 40
0.5
 40
0.5
 40
0.5
 40
0.625
 40
0.625
 40
0.625
 40
0.625
 40
0.75
 40
0.75
 40
0.75
 40
0.75
 40
0.875
 40
0.875
 40
0.875
 40
0.875
 40
1.0
 40
1.0
 40
1.0
 40
1.0
 10
-8.608500000000001
 20
-2.5201
 30
0.0
 10
-8.608500000000001
 20
-2.5201
 30
0.0
 10
-8.608500000000001
 20
-2.4929
 30
0.0
 10
-8.608500000000001
 20
-2.4929
 30
0.0
 10
-8.608500000000001
 20
-2.4929
 30
0.0
 10
-8.608500000000001
 20
-2.4929
 30
0.0
 10
-8.608500000000001
 20
-2.4656
 30
0.0
 10
-8.608500000000001
 20
-2.4656
 30
0.0
 10
-8.608500000000001
 20
-2.4656
 30
0.0
 10
-8.608500000000001
 20
-2.4656
 30
0.0
 10
-8.6358
 20
-2.4383
 30
0.0
 10
-8.6358
 20
-2.4383
 30
0.0
 10
-8.6358
 20
-2.4383
 30
0.0
 10
-8.6358
 20
-2.4383
 30
0.0
 10
-8.6631
 20
-2.411
 30
0.0
 10
-8.6631
 20
-2.411
 30
0.0
 10
-8.6631
 20
-2.411
 30
0.0
 10
-8.6631
 20
-2.411
 30
0.0
 10
-8.6904
 20
-2.411
 30
0.0
 10
-8.6904
 20
-2.411
 30
0.0
 10
-8.6904
 20
-2.411
 30
0.0
 10
-8.6904
 20
-2.411
 30
0.0
 10
-8.717600000000001
 20
-2.3838
 30
0.0
 10
-8.717600000000001
 20
-2.3838
 30
0.0
 10
-8.717600000000001
 20
-2.3838
 30
0.0
 10
-8.717600000000001
 20
-2.3838
 30
0.0
 10
-8.744900000000001
 20
-2.3838
 30
0.0
 10
-8.744900000000001
 20
-2.3838
 30
0.0
 10
-8.744900000000001
 20
-2.3838
 30
0.0
 10
-8.744900000000001
 20
-2.3838
 30
0.0
 10
-8.7722
 20
-2.3838
 30
0.0
 10
-8.7722
 20
-2.3838
 30
0.0
  0
SPLINE
  5
A0
330
1F
100
AcDbEntity
  8
Ebene 1
370
    13
100
AcDbSpline
210
0.0
220
0.0
230
1.0
 70
    24
 71
     3
 72
     8
 73
     4
 74
     0
 42
0.0000000001
 43
0.0000000001
 40
0.0
 40
0.0
 40
0.0
 40
0.0
 40
1.0
 40
1.0
 40
1.0
 40
1.0
 10
-8.608500000000001
 20
-3.2841
 30
0.0
 10
-8.608500000000001
 20
-3.2841
 30
0.0
 10
-8.3903
 20
-3.2841
 30
0.0
 10
-8.3903
 20
-3.2841
 30
0.0
  0
SPLINE
  5
A1
330
1F
100
AcDbEntity
  8
Ebene 1
370
    13
100
AcDbSpline
210
0.0
220
0.0
230
1.0
 70
    24
 71
     3
 72
     8
 73
     4
 74
     0
 42
0.0000000001
 43
0.0000000001
 40
0.0
 40
0.0
 40
0.0
 40
0.0
 40
1.0
 40
1.0
 40
1.0
 40
1.0
 10
-8.3903
 20
-3.2841
 30
0.0
 10
-8.3903
 20
-3.2841
 30
0.0
 10
-8.3903
 20
-2.3292
 30
0.0
 10
-8.3903
 20
-2.3292
 30
0.0
  0
SPLINE
  5
A2
330
1F
100
AcDbEntity
  8
Ebene 1
370
    13
100
AcDbSpline
210
0.0
220
0.0
230
1.0
 70
     8
 71
     3
 72
    36
 73
    32
 74
     0
 42
0.0000000001
 43
0.0000000001
 40
0.0
 40
0.0
 40
0.0
 40
0.0
 40
0.125
 40
0.125
 40
0.125
 40
0.125
 40
0.25
 40
0.25
 40
0.25
 40
0.25
 40
0.375
 40
0.375
 40
0.375
 40
0.375
 40
0.5
 40
0.5
 40
0.5
 40
0.5
 40
0.625
 40
0.625
 40
0.625
 40
0.625
 40
0.75
 40
0.75
 40
0.75
 40
0.75
 40
0.875
 40
0.875
 40
0.875
 40
0.875
 40
1.0
 40
1.0
 40
1.0
 40
1.0
 10
-8.3903
 20
-2.3292
 30
0.0
 10
-8.3903
 20
-2.3292
 30
0.0
 10
-8.3903
 20
-2.3019
 30
0.0
 10
-8.3903
 20
-2.3019
 30
0.0
 10
-8.3903
 20
-2.3019
 30
0.0
 10
-8.3903
 20
-2.3019
 30
0.0
 10
-8.4176
 20
-2.2746
 30
0.0
 10
-8.4176
 20
-2.2746
 30
0.0
 10
-8.4176
 20
-2.2746
 30
0.0
 10
-8.4176
 20
-2.2746
 30
0.0
 10
-8.4176
 20
-2.2474
 30
0.0
 10
-8.4176
 20
-2.2474
 30
0.0
 10
-8.4176
 20
-2.2474
 30
0.0
 10
-8.4176
 20
-2.2474
 30
0.0
 10
-8.444900000000001
 20
-2.2201
 30
0.0
 10
-8.444900000000001
 20
-2.2201
 30
0.0
 10
-8.444900000000001
 20
-2.2201
 30
0.0
 10
-8.444900000000001
 20
-2.2201
 30
0.0
 10
-8.472100000000001
 20
-2.1928
 30
0.0
 10
-8.472100000000001
 20
-2.1928
 30
0.0
 10
-8.472100000000001
 20
-2.1928
 30
0.0
 10
-8.472100000000001
 20
-2.1928
 30
0.0
 10
-8.4994
 20
-2.1655
 30
0.0
 10
-8.4994
 20
-2.1655
 30
0.0
 10
-8.4994
 20
-2.1655
 30
0.0
 10
-8.4994
 20
-2.1655
 30
0.0
 10
-8.5267
 20
-2.1655
 30
0.0
 10
-8.5267
 20
-2.1655
 30
0.0
 10
-8.5267
 20
-2.1655
 30
0.0
 10
-8.5267
 20
-2.1655
 30
0.0
 10
-8.581300000000001
 20
-2.1655
 30
0.0
 10
-8.581300000000001
 20
-2.1655
 30
0.0
  0
SPLINE
  5
A3
330
1F
100
AcDbEntity
  8
Ebene 1
370
    13
100
AcDbSpline
210
0.0
220
0.0
230
1.0
 70
    24
 71
     3
 72
     8
 73
     4
 74
     0
 42
0.0000000001
 43
0.0000000001
 40
0.0
 40
0.0
 40
0.0
 40
0.0
 40
1.0
 40
1.0
 40
1.0
 40
1.0
 10
-8.581300000000001
 20
-2.1655
 30
0.0
 10
-8.581300000000001
 20
-2.1655
 30
0.0
 10
-8.963200000000001
 20
-2.1655
 30
0.0
 10
-8.963200000000001
 20
-2.1655
 30
0.0
  0
SPLINE
  5
A4
330
1F
100
AcDbEntity
  8
Ebene 1
370
    13
100
AcDbSpline
210
0.0
220
0.0
230
1.0
 70
     8
 71
     3
 72
    36
 73
    32
 74
     0
 42
0.0000000001
 43
0.0000000001
 40
0.0
 40
0.0
 40
0.0
 40
0.0
 40
0.125
 40
0.125
 40
0.125
 40
0.125
 40
0.25
 40
0.25
 40
0.25
 40
0.25
 40
0.375
 40
0.375
 40
0.375
 40
0.375
 40
0.5
 40
0.5
 40
0.5
 40
0.5
 40
0.625
 40
0.625
 40
0.625
 40
0.625
 40
0.75
 40
0.75
 40
0.75
 40
0.75
 40
0.875
 40
0.875
 40
0.875
 40
0.875
 40
1.0
 40
1.0
 40
1.0
 40
1.0
 10
-9.126900000000001
 20
-2.3019
 30
0.0
 10
-9.126900000000001
 20
-2.3019
 30
0.0
 10
-9.126900000000001
 20
-2.2746
 30
0.0
 10
-9.126900000000001
 20
-2.2746
 30
0.0
 10
-9.126900000000001
 20
-2.2746
 30
0.0
 10
-9.126900000000001
 20
-2.2746
 30
0.0
 10
-9.154200000000001
 20
-2.2474
 30
0.0
 10
-9.154200000000001
 20
-2.2474
 30
0.0
 10
-9.154200000000001
 20
-2.2474
 30
0.0
 10
-9.154200000000001
 20
-2.2474
 30
0.0
 10
-9.1815
 20
-2.2201
 30
0.0
 10
-9.1815
 20
-2.2201
 30
0.0
 10
-9.1815
 20
-2.2201
 30
0.0
 10
-9.1815
 20
-2.2201
 30
0.0
 10
-9.1815
 20
-2.1928
 30
0.0
 10
-9.1815
 20
-2.1928
 30
0.0
 10
-9.1815
 20
-2.1928
 30
0.0
 10
-9.1815
 20
-2.1928
 30
0.0
 10
-9.2088
 20
-2.1655
 30
0.0
 10
-9.2088
 20
-2.1655
 30
0.0
 10
-9.2088
 20
-2.1655
 30
0.0
 10
-9.2088
 20
-2.1655
 30
0.0
 10
-9.2361
 20
-2.1655
 30
0.0
 10
-9.2361
 20
-2.1655
 30
0.0
 10
-9.2361
 20
-2.1655
 30
0.0
 10
-9.2361
 20
-2.1655
 30
0.0
 10
-9.263400000000001
 20
-2.1655
 30
0.0
 10
-9.263400000000001
 20
-2.1655
 30
0.0
 10
-9.263400000000001
 20
-2.1655
 30
0.0
 10
-9.263400000000001
 20
-2.1655
 30
0.0
 10
-9.318
 20
-2.1655
 30
0.0
 10
-9.318
 20
-2.1655
 30
0.0
  0
SPLINE
  5
A5
330
1F
100
AcDbEntity
  8
Ebene 1
370
    13
100
AcDbSpline
210
0.0
220
0.0
230
1.0
 70
    24
 71
     3
 72
     8
 73
     4
 74
     0
 42
0.0000000001
 43
0.0000000001
 40
0.0
 40
0.0
 40
0.0
 40
0.0
 40
1.0
 40
1.0
 40
1.0
 40
1.0
 10
-9.318
 20
-2.1655
 30
0.0
 10
-9.318
 20
-2.1655
 30
0.0
 10
-9.699900000000001
 20
-2.1655
 30
0.0
 10
-9.699900000000001
 20
-2.1655
 30
0.0
  0
SPLINE
  5
A6
330
1F
100
AcDbEntity
  8
Ebene 1
370
    13
100
AcDbSpline
210
0.0
220
0.0
230
1.0
 70
     8
 71
     3
 72
    36
 73
    32
 74
     0
 42
0.0000000001
 43
0.0000000001
 40
0.0
 40
0.0
 40
0.0
 40
0.0
 40
0.125
 40
0.125
 40
0.125
 40
0.125
 40
0.25
 40
0.25
 40
0.25
 40
0.25
 40
0.375
 40
0.375
 40
0.375
 40
0.375
 40
0.5
 40
0.5
 40
0.5
 40
0.5
 40
0.625
 40
0.625
 40
0.625
 40
0.625
 40
0.75
 40
0.75
 40
0.75
 40
0.75
 40
0.875
 40
0.875
 40
0.875
 40
0.875
 40
1.0
 40
1.0
 40
1.0
 40
1.0
 10
-9.699900000000001
 20
-2.1655
 30
0.0
 10
-9.699900000000001
 20
-2.1655
 30
0.0
 10
-9.7272
 20
-2.1655
 30
0.0
 10
-9.7272
 20
-2.1655
 30
0.0
 10
-9.7272
 20
-2.1655
 30
0.0
 10
-9.7272
 20
-2.1655
 30
0.0
 10
-9.7545
 20
-2.1655
 30
0.0
 10
-9.7545
 20
-2.1655
 30
0.0
 10
-9.7545
 20
-2.1655
 30
0.0
 10
-9.7545
 20
-2.1655
 30
0.0
 10
-9.781800000000001
 20
-2.1928
 30
0.0
 10
-9.781800000000001
 20
-2.1928
 30
0.0
 10
-9.781800000000001
 20
-2.1928
 30
0.0
 10
-9.781800000000001
 20
-2.1928
 30
0.0
 10
-9.809100000000001
 20
-2.2201
 30
0.0
 10
-9.809100000000001
 20
-2.2201
 30
0.0
 10
-9.809100000000001
 20
-2.2201
 30
0.0
 10
-9.809100000000001
 20
-2.2201
 30
0.0
 10
-9.8363
 20
-2.2474
 30
0.0
 10
-9.8363
 20
-2.2474
 30
0.0
 10
-9.8363
 20
-2.2474
 30
0.0
 10
-9.8363
 20
-2.2474
 30
0.0
 10
-9.8636
 20
-2.2746
 30
0.0
 10
-9.8636
 20
-2.2746
 30
0.0
 10
-9.8636
 20
-2.2746
 30
0.0
 10
-9.8636
 20
-2.2746
 30
0.0
 10
-9.8636
 20
-2.3019
 30
0.0
 10
-9.8636
 20
-2.3019
 30
0.0
 10
-9.8636
 20
-2.3019
 30
0.0
 10
-9.8636
 20
-2.3019
 30
0.0
 10
-9.8636
 20
-2.3292
 30
0.0
 10
-9.8636
 20
-2.3292
 30
0.0
  0
SPLINE
  5
A7
330
1F
100
AcDbEntity
  8
Ebene 1
370
    13
100
AcDbSpline
210
0.0
220
0.0
230
1.0
 70
    24
 71
     3
 72
     8
 73
     4
 74
     0
 42
0.0000000001
 43
0.0000000001
 40
0.0
 40
0.0
 40
0.0
 40
0.0
 40
1.0
 40
1.0
 40
1.0
 40
1.0
 10
-9.8636
 20
-2.3292
 30
0.0
 10
-9.8636
 20
-2.3292
 30
0.0
 10
-9.8636
 20
-3.2841
 30
0.0
 10
-9.8636
 20
-3.2841
 30
0.0
  0
SPLINE
  5
A8
330
1F
100
AcDbEntity
  8
Ebene 1
370
    13
100
AcDbSpline
210
0.0
220
0.0
230
1.0
 70
    24
 71
     3
 72
     8
 73
     4
 74
     0
 42
0.0000000001
 43
0.0000000001
 40
0.0
 40
0.0
 40
0.0
 40
0.0
 40
1.0
 40
1.0
 40
1.0
 40
1.0
 10
-9.645300000000001
 20
-3.2841
 30
0.0
 10
-9.645300000000001
 20
-3.2841
 30
0.0
 10
-9.645300000000001
 20
-2.5201
 30
0.0
 10
-9.645300000000001
 20
-2.5201
 30
0.0
  0
SPLINE
  5
A9
330
1F
100
AcDbEntity
  8
Ebene 1
370
    13
100
AcDbSpline
210
0.0
220
0.0
230
1.0
 70
     8
 71
     3
 72
    28
 73
    24
 74
     0
 42
0.0000000001
 43
0.0000000001
 40
0.0
 40
0.0
 40
0.0
 40
0.0
 40
0.1666666666666667
 40
0.1666666666666667
 40
0.1666666666666667
 40
0.1666666666666667
 40
0.3333333333333333
 40
0.3333333333333333
 40
0.3333333333333333
 40
0.3333333333333333
 40
0.5
 40
0.5
 40
0.5
 40
0.5
 40
0.6666666666666666
 40
0.6666666666666666
 40
0.6666666666666666
 40
0.6666666666666666
 40
0.8333333333333333
 40
0.8333333333333333
 40
0.8333333333333333
 40
0.8333333333333333
 40
1.0
 40
1.0
 40
1.0
 40
1.0
 10
-15.1294
 20
-2.9567
 30
0.0
 10
-15.1294
 20
-2.9567
 30
0.0
 10
-15.1294
 20
-2.9567
 30
0.0
 10
-15.1294
 20
-2.9567
 30
0.0
 10
-15.1294
 20
-2.9567
 30
0.0
 10
-15.1294
 20
-2.9567
 30
0.0
 10
-15.1294
 20
-2.9294
 30
0.0
 10
-15.1294
 20
-2.9294
 30
0.0
 10
-15.1294
 20
-2.9294
 30
0.0
 10
-15.1294
 20
-2.9294
 30
0.0
 10
-15.1021
 20
-2.9294
 30
0.0
 10
-15.1021
 20
-2.9294
 30
0.0
 10
-15.1021
 20
-2.9294
 30
0.0
 10
-15.1021
 20
-2.9294
 30
0.0
 10
-15.1294
 20
-2.9021
 30
0.0
 10
-15.1294
 20
-2.9021
 30
0.0
 10
-15.1294
 20
-2.9021
 30
0.0
 10
-15.1294
 20
-2.9021
 30
0.0
 10
-15.1294
 20
-2.8749
 30
0.0
 10
-15.1294
 20
-2.8749
 30
0.0
 10
-15.1294
 20
-2.8749
 30
0.0
 10
-15.1294
 20
-2.8749
 30
0.0
 10
-15.1567
 20
-2.8749
 30
0.0
 10
-15.1567
 20
-2.8749
 30
0.0
  0
SPLINE
  5
AA
330
1F
100
AcDbEntity
  8
Ebene 1
370
    13
100
AcDbSpline
210
0.0
220
0.0
230
1.0
 70
    24
 71
     3
 72
     8
 73
     4
 74
     0
 42
0.0000000001
 43
0.0000000001
 40
0.0
 40
0.0
 40
0.0
 40
0.0
 40
1.0
 40
1.0
 40
1.0
 40
1.0
 10
-15.2113
 20
-2.984
 30
0.0
 10
-15.2113
 20
-2.984
 30
0.0
 10
-15.1294
 20
-2.9567
 30
0.0
 10
-15.1294
 20
-2.9567
 30
0.0
  0
SPLINE
  5
AB
330
1F
100
AcDbEntity
  8
Ebene 1
370
    13
100
AcDbSpline
210
0.0
220
0.0
230
1.0
 70
    24
 71
     3
 72
     8
 73
     4
 74
     0
 42
0.0000000001
 43
0.0000000001
 40
0.0
 40
0.0
 40
0.0
 40
0.0
 40
1.0
 40
1.0
 40
1.0
 40
1.0
 10
-15.2113
 20
-2.984
 30
0.0
 10
-15.2113
 20
-2.984
 30
0.0
 10
-15.2658
 20
-3.0113
 30
0.0
 10
-15.2658
 20
-3.0113
 30
0.0
  0
SPLINE
  5
AC
330
1F
100
AcDbEntity
  8
Ebene 1
370
    13
100
AcDbSpline
210
0.0
220
0.0
230
1.0
 70
     8
 71
     3
 72
    24
 73
    20
 74
     0
 42
0.0000000001
 43
0.0000000001
 40
0.0
 40
0.0
 40
0.0
 40
0.0
 40
0.2
 40
0.2
 40
0.2
 40
0.2
 40
0.4
 40
0.4
 40
0.4
 40
0.4
 40
0.6000000000000001
 40
0.6000000000000001
 40
0.6000000000000001
 40
0.6000000000000001
 40
0.8
 40
0.8
 40
0.8
 40
0.8
 40
1.0
 40
1.0
 40
1.0
 40
1.0
 10
-15.2931
 20
-2.9294
 30
0.0
 10
-15.2931
 20
-2.9294
 30
0.0
 10
-15.3204
 20
-2.9294
 30
0.0
 10
-15.3204
 20
-2.9294
 30
0.0
 10
-15.3204
 20
-2.9294
 30
0.0
 10
-15.3204
 20
-2.9294
 30
0.0
 10
-15.3204
 20
-2.9567
 30
0.0
 10
-15.3204
 20
-2.9567
 30
0.0
 10
-15.3204
 20
-2.9567
 30
0.0
 10
-15.3204
 20
-2.9567
 30
0.0
 10
-15.3204
 20
-2.984
 30
0.0
 10
-15.3204
 20
-2.984
 30
0.0
 10
-15.3204
 20
-2.984
 30
0.0
 10
-15.3204
 20
-2.984
 30
0.0
 10
-15.2931
 20
-3.0113
 30
0.0
 10
-15.2931
 20
-3.0113
 30
0.0
 10
-15.2931
 20
-3.0113
 30
0.0
 10
-15.2931
 20
-3.0113
 30
0.0
 10
-15.2658
 20
-3.0113
 30
0.0
 10
-15.2658
 20
-3.0113
 30
0.0
  0
SPLINE
  5
AD
330
1F
100
AcDbEntity
  8
Ebene 1
370
    13
100
AcDbSpline
210
0.0
220
0.0
230
1.0
 70
    24
 71
     3
 72
     8
 73
     4
 74
     0
 42
0.0000000001
 43
0.0000000001
 40
0.0
 40
0.0
 40
0.0
 40
0.0
 40
1.0
 40
1.0
 40
1.0
 40
1.0
 10
-15.2385
 20
-2.9021
 30
0.0
 10
-15.2385
 20
-2.9021
 30
0.0
 10
-15.2931
 20
-2.9294
 30
0.0
 10
-15.2931
 20
-2.9294
 30
0.0
  0
SPLINE
  5
AE
330
1F
100
AcDbEntity
  8
Ebene 1
370
    13
100
AcDbSpline
210
0.0
220
0.0
230
1.0
 70
    24
 71
     3
 72
     8
 73
     4
 74
     0
 42
0.0000000001
 43
0.0000000001
 40
0.0
 40
0.0
 40
0.0
 40
0.0
 40
1.0
 40
1.0
 40
1.0
 40
1.0
 10
-15.2385
 20
-2.9021
 30
0.0
 10
-15.2385
 20
-2.9021
 30
0.0
 10
-15.1567
 20
-2.8749
 30
0.0
 10
-15.1567
 20
-2.8749
 30
0.0
  0
SPLINE
  5
AF
330
1F
100
AcDbEntity
  8
Ebene 1
370
    13
100
AcDbSpline
210
0.0
220
0.0
230
1.0
 70
     8
 71
     3
 72
    24
 73
    20
 74
     0
 42
0.0000000001
 43
0.0000000001
 40
0.0
 40
0.0
 40
0.0
 40
0.0
 40
0.2
 40
0.2
 40
0.2
 40
0.2
 40
0.4
 40
0.4
 40
0.4
 40
0.4
 40
0.6000000000000001
 40
0.6000000000000001
 40
0.6000000000000001
 40
0.6000000000000001
 40
0.8
 40
0.8
 40
0.8
 40
0.8
 40
1.0
 40
1.0
 40
1.0
 40
1.0
 10
-15.0476
 20
-2.5474
 30
0.0
 10
-15.0476
 20
-2.5474
 30
0.0
 10
-15.0749
 20
-2.5201
 30
0.0
 10
-15.0749
 20
-2.5201
 30
0.0
 10
-15.0749
 20
-2.5201
 30
0.0
 10
-15.0749
 20
-2.5201
 30
0.0
 10
-15.1021
 20
-2.5201
 30
0.0
 10
-15.1021
 20
-2.5201
 30
0.0
 10
-15.1021
 20
-2.5201
 30
0.0
 10
-15.1021
 20
-2.5201
 30
0.0
 10
-15.1294
 20
-2.5201
 30
0.0
 10
-15.1294
 20
-2.5201
 30
0.0
 10
-15.1294
 20
-2.5201
 30
0.0
 10
-15.1294
 20
-2.5201
 30
0.0
 10
-15.1294
 20
-2.5474
 30
0.0
 10
-15.1294
 20
-2.5474
 30
0.0
 10
-15.1294
 20
-2.5474
 30
0.0
 10
-15.1294
 20
-2.5474
 30
0.0
 10
-15.1294
 20
-2.5747
 30
0.0
 10
-15.1294
 20
-2.5747
 30
0.0
  0
SPLINE
  5
B0
330
1F
100
AcDbEntity
  8
Ebene 1
370
    13
100
AcDbSpline
210
0.0
220
0.0
230
1.0
 70
    24
 71
     3
 72
     8
 73
     4
 74
     0
 42
0.0000000001
 43
0.0000000001
 40
0.0
 40
0.0
 40
0.0
 40
0.0
 40
1.0
 40
1.0
 40
1.0
 40
1.0
 10
-15.0476
 20
-2.5474
 30
0.0
 10
-15.0476
 20
-2.5474
 30
0.0
 10
-15.0203
 20
-2.6839
 30
0.0
 10
-15.0203
 20
-2.6839
 30
0.0
  0
SPLINE
  5
B1
330
1F
100
AcDbEntity
  8
Ebene 1
370
    13
100
AcDbSpline
210
0.0
220
0.0
230
1.0
 70
     8
 71
     3
 72
    24
 73
    20
 74
     0
 42
0.0000000001
 43
0.0000000001
 40
0.0
 40
0.0
 40
0.0
 40
0.0
 40
0.2
 40
0.2
 40
0.2
 40
0.2
 40
0.4
 40
0.4
 40
0.4
 40
0.4
 40
0.6000000000000001
 40
0.6000000000000001
 40
0.6000000000000001
 40
0.6000000000000001
 40
0.8
 40
0.8
 40
0.8
 40
0.8
 40
1.0
 40
1.0
 40
1.0
 40
1.0
 10
-15.0749
 20
-2.7112
 30
0.0
 10
-15.0749
 20
-2.7112
 30
0.0
 10
-15.0749
 20
-2.7112
 30
0.0
 10
-15.0749
 20
-2.7112
 30
0.0
 10
-15.0749
 20
-2.7112
 30
0.0
 10
-15.0749
 20
-2.7112
 30
0.0
 10
-15.0476
 20
-2.7112
 30
0.0
 10
-15.0476
 20
-2.7112
 30
0.0
 10
-15.0476
 20
-2.7112
 30
0.0
 10
-15.0476
 20
-2.7112
 30
0.0
 10
-15.0476
 20
-2.7385
 30
0.0
 10
-15.0476
 20
-2.7385
 30
0.0
 10
-15.0476
 20
-2.7385
 30
0.0
 10
-15.0476
 20
-2.7385
 30
0.0
 10
-15.0203
 20
-2.7112
 30
0.0
 10
-15.0203
 20
-2.7112
 30
0.0
 10
-15.0203
 20
-2.7112
 30
0.0
 10
-15.0203
 20
-2.7112
 30
0.0
 10
-15.0203
 20
-2.6839
 30
0.0
 10
-15.0203
 20
-2.6839
 30
0.0
  0
SPLINE
  5
B2
330
1F
100
AcDbEntity
  8
Ebene 1
370
    13
100
AcDbSpline
210
0.0
220
0.0
230
1.0
 70
    24
 71
     3
 72
     8
 73
     4
 74
     0
 42
0.0000000001
 43
0.0000000001
 40
0.0
 40
0.0
 40
0.0
 40
0.0
 40
1.0
 40
1.0
 40
1.0
 40
1.0
 10
-15.1294
 20
-2.5747
 30
0.0
 10
-15.1294
 20
-2.5747
 30
0.0
 10
-15.0749
 20
-2.7112
 30
0.0
 10
-15.0749
 20
-2.7112
 30
0.0
  0
SPLINE
  5
B3
330
1F
100
AcDbEntity
  8
Ebene 1
370
    13
100
AcDbSpline
210
0.0
220
0.0
230
1.0
 70
     8
 71
     3
 72
    20
 73
    16
 74
     0
 42
0.0000000001
 43
0.0000000001
 40
0.0
 40
0.0
 40
0.0
 40
0.0
 40
0.25
 40
0.25
 40
0.25
 40
0.25
 40
0.5
 40
0.5
 40
0.5
 40
0.5
 40
0.75
 40
0.75
 40
0.75
 40
0.75
 40
1.0
 40
1.0
 40
1.0
 40
1.0
 10
-14.7474
 20
-3.1205
 30
0.0
 10
-14.7474
 20
-3.1205
 30
0.0
 10
-14.7202
 20
-3.0932
 30
0.0
 10
-14.7202
 20
-3.0932
 30
0.0
 10
-14.7202
 20
-3.0932
 30
0.0
 10
-14.7202
 20
-3.0932
 30
0.0
 10
-14.7202
 20
-3.0659
 30
0.0
 10
-14.7202
 20
-3.0659
 30
0.0
 10
-14.7202
 20
-3.0659
 30
0.0
 10
-14.7202
 20
-3.0659
 30
0.0
 10
-14.7202
 20
-3.0386
 30
0.0
 10
-14.7202
 20
-3.0386
 30
0.0
 10
-14.7202
 20
-3.0386
 30
0.0
 10
-14.7202
 20
-3.0386
 30
0.0
 10
-14.7474
 20
-3.0386
 30
0.0
 10
-14.7474
 20
-3.0386
 30
0.0
  0
SPLINE
  5
B4
330
1F
100
AcDbEntity
  8
Ebene 1
370
    13
100
AcDbSpline
210
0.0
220
0.0
230
1.0
 70
    24
 71
     3
 72
     8
 73
     4
 74
     0
 42
0.0000000001
 43
0.0000000001
 40
0.0
 40
0.0
 40
0.0
 40
0.0
 40
1.0
 40
1.0
 40
1.0
 40
1.0
 10
-14.7474
 20
-3.1205
 30
0.0
 10
-14.7474
 20
-3.1205
 30
0.0
 10
-15.4841
 20
-3.3932
 30
0.0
 10
-15.4841
 20
-3.3932
 30
0.0
  0
SPLINE
  5
B5
330
1F
100
AcDbEntity
  8
Ebene 1
370
    13
100
AcDbSpline
210
0.0
220
0.0
230
1.0
 70
     8
 71
     3
 72
    32
 73
    28
 74
     0
 42
0.0000000001
 43
0.0000000001
 40
0.0
 40
0.0
 40
0.0
 40
0.0
 40
0.1428571428571429
 40
0.1428571428571429
 40
0.1428571428571429
 40
0.1428571428571429
 40
0.2857142857142857
 40
0.2857142857142857
 40
0.2857142857142857
 40
0.2857142857142857
 40
0.4285714285714286
 40
0.4285714285714286
 40
0.4285714285714286
 40
0.4285714285714286
 40
0.5714285714285714
 40
0.5714285714285714
 40
0.5714285714285714
 40
0.5714285714285714
 40
0.7142857142857142
 40
0.7142857142857142
 40
0.7142857142857142
 40
0.7142857142857142
 40
0.857142857142857
 40
0.857142857142857
 40
0.857142857142857
 40
0.857142857142857
 40
1.0
 40
1.0
 40
1.0
 40
1.0
 10
-15.5114
 20
-3.3114
 30
0.0
 10
-15.5114
 20
-3.3114
 30
0.0
 10
-15.5114
 20
-3.3114
 30
0.0
 10
-15.5114
 20
-3.3114
 30
0.0
 10
-15.5114
 20
-3.3114
 30
0.0
 10
-15.5114
 20
-3.3114
 30
0.0
 10
-15.5114
 20
-3.3387
 30
0.0
 10
-15.5114
 20
-3.3387
 30
0.0
 10
-15.5114
 20
-3.3387
 30
0.0
 10
-15.5114
 20
-3.3387
 30
0.0
 10
-15.5387
 20
-3.3387
 30
0.0
 10
-15.5387
 20
-3.3387
 30
0.0
 10
-15.5387
 20
-3.3387
 30
0.0
 10
-15.5387
 20
-3.3387
 30
0.0
 10
-15.5387
 20
-3.366
 30
0.0
 10
-15.5387
 20
-3.366
 30
0.0
 10
-15.5387
 20
-3.366
 30
0.0
 10
-15.5387
 20
-3.366
 30
0.0
 10
-15.5114
 20
-3.366
 30
0.0
 10
-15.5114
 20
-3.366
 30
0.0
 10
-15.5114
 20
-3.366
 30
0.0
 10
-15.5114
 20
-3.366
 30
0.0
 10
-15.5114
 20
-3.3932
 30
0.0
 10
-15.5114
 20
-3.3932
 30
0.0
 10
-15.5114
 20
-3.3932
 30
0.0
 10
-15.5114
 20
-3.3932
 30
0.0
 10
-15.4841
 20
-3.3932
 30
0.0
 10
-15.4841
 20
-3.3932
 30
0.0
  0
SPLINE
  5
B6
330
1F
100
AcDbEntity
  8
Ebene 1
370
    13
100
AcDbSpline
210
0.0
220
0.0
230
1.0
 70
    24
 71
     3
 72
     8
 73
     4
 74
     0
 42
0.0000000001
 43
0.0000000001
 40
0.0
 40
0.0
 40
0.0
 40
0.0
 40
1.0
 40
1.0
 40
1.0
 40
1.0
 10
-15.5114
 20
-3.3114
 30
0.0
 10
-15.5114
 20
-3.3114
 30
0.0
 10
-14.7474
 20
-3.0386
 30
0.0
 10
-14.7474
 20
-3.0386
 30
0.0
  0
SPLINE
  5
B7
330
1F
100
AcDbEntity
  8
Ebene 1
370
    13
100
AcDbSpline
210
0.0
220
0.0
230
1.0
 70
     8
 71
     3
 72
    24
 73
    20
 74
     0
 42
0.0000000001
 43
0.0000000001
 40
0.0
 40
0.0
 40
0.0
 40
0.0
 40
0.2
 40
0.2
 40
0.2
 40
0.2
 40
0.4
 40
0.4
 40
0.4
 40
0.4
 40
0.6000000000000001
 40
0.6000000000000001
 40
0.6000000000000001
 40
0.6000000000000001
 40
0.8
 40
0.8
 40
0.8
 40
0.8
 40
1.0
 40
1.0
 40
1.0
 40
1.0
 10
-15.6205
 20
-3.0659
 30
0.0
 10
-15.6205
 20
-3.0659
 30
0.0
 10
-15.6205
 20
-3.0932
 30
0.0
 10
-15.6205
 20
-3.0932
 30
0.0
 10
-15.6205
 20
-3.0932
 30
0.0
 10
-15.6205
 20
-3.0932
 30
0.0
 10
-15.5932
 20
-3.0932
 30
0.0
 10
-15.5932
 20
-3.0932
 30
0.0
 10
-15.5932
 20
-3.0932
 30
0.0
 10
-15.5932
 20
-3.0932
 30
0.0
 10
-15.566
 20
-3.0932
 30
0.0
 10
-15.566
 20
-3.0932
 30
0.0
 10
-15.566
 20
-3.0932
 30
0.0
 10
-15.566
 20
-3.0932
 30
0.0
 10
-15.566
 20
-3.0659
 30
0.0
 10
-15.566
 20
-3.0659
 30
0.0
 10
-15.566
 20
-3.0659
 30
0.0
 10
-15.566
 20
-3.0659
 30
0.0
 10
-15.566
 20
-3.0386
 30
0.0
 10
-15.566
 20
-3.0386
 30
0.0
  0
SPLINE
  5
B8
330
1F
100
AcDbEntity
  8
Ebene 1
370
    13
100
AcDbSpline
210
0.0
220
0.0
230
1.0
 70
    24
 71
     3
 72
     8
 73
     4
 74
     0
 42
0.0000000001
 43
0.0000000001
 40
0.0
 40
0.0
 40
0.0
 40
0.0
 40
1.0
 40
1.0
 40
1.0
 40
1.0
 10
-15.6205
 20
-3.0659
 30
0.0
 10
-15.6205
 20
-3.0659
 30
0.0
 10
-15.7843
 20
-2.6293
 30
0.0
 10
-15.7843
 20
-2.6293
 30
0.0
  0
SPLINE
  5
B9
330
1F
100
AcDbEntity
  8
Ebene 1
370
    13
100
AcDbSpline
210
0.0
220
0.0
230
1.0
 70
     8
 71
     3
 72
    24
 73
    20
 74
     0
 42
0.0000000001
 43
0.0000000001
 40
0.0
 40
0.0
 40
0.0
 40
0.0
 40
0.2
 40
0.2
 40
0.2
 40
0.2
 40
0.4
 40
0.4
 40
0.4
 40
0.4
 40
0.6000000000000001
 40
0.6000000000000001
 40
0.6000000000000001
 40
0.6000000000000001
 40
0.8
 40
0.8
 40
0.8
 40
0.8
 40
1.0
 40
1.0
 40
1.0
 40
1.0
 10
-15.7297
 20
-2.602
 30
0.0
 10
-15.7297
 20
-2.602
 30
0.0
 10
-15.7297
 20
-2.602
 30
0.0
 10
-15.7297
 20
-2.602
 30
0.0
 10
-15.7297
 20
-2.602
 30
0.0
 10
-15.7297
 20
-2.602
 30
0.0
 10
-15.757
 20
-2.5747
 30
0.0
 10
-15.757
 20
-2.5747
 30
0.0
 10
-15.757
 20
-2.5747
 30
0.0
 10
-15.757
 20
-2.5747
 30
0.0
 10
-15.757
 20
-2.602
 30
0.0
 10
-15.757
 20
-2.602
 30
0.0
 10
-15.757
 20
-2.602
 30
0.0
 10
-15.757
 20
-2.602
 30
0.0
 10
-15.7843
 20
-2.602
 30
0.0
 10
-15.7843
 20
-2.602
 30
0.0
 10
-15.7843
 20
-2.602
 30
0.0
 10
-15.7843
 20
-2.602
 30
0.0
 10
-15.7843
 20
-2.6293
 30
0.0
 10
-15.7843
 20
-2.6293
 30
0.0
  0
SPLINE
  5
BA
330
1F
100
AcDbEntity
  8
Ebene 1
370
    13
100
AcDbSpline
210
0.0
220
0.0
230
1.0
 70
    24
 71
     3
 72
     8
 73
     4
 74
     0
 42
0.0000000001
 43
0.0000000001
 40
0.0
 40
0.0
 40
0.0
 40
0.0
 40
1.0
 40
1.0
 40
1.0
 40
1.0
 10
-15.7297
 20
-2.602
 30
0.0
 10
-15.7297
 20
-2.602
 30
0.0
 10
-15.566
 20
-3.0386
 30
0.0
 10
-15.566
 20
-3.0386
 30
0.0
  0
SPLINE
  5
BB
330
1F
100
AcDbEntity
  8
Ebene 1
370
    13
100
AcDbSpline
210
0.0
220
0.0
230
1.0
 70
    24
 71
     3
 72
     8
 73
     4
 74
     0
 42
0.0000000001
 43
0.0000000001
 40
0.0
 40
0.0
 40
0.0
 40
0.0
 40
1.0
 40
1.0
 40
1.0
 40
1.0
 10
-15.0749
 20
-3.3114
 30
0.0
 10
-15.0749
 20
-3.3114
 30
0.0
 10
-14.4746
 20
-3.0932
 30
0.0
 10
-14.4746
 20
-3.0932
 30
0.0
  0
SPLINE
  5
BC
330
1F
100
AcDbEntity
  8
Ebene 1
370
    13
100
AcDbSpline
210
0.0
220
0.0
230
1.0
 70
    24
 71
     3
 72
     8
 73
     4
 74
     0
 42
0.0000000001
 43
0.0000000001
 40
0.0
 40
0.0
 40
0.0
 40
0.0
 40
1.0
 40
1.0
 40
1.0
 40
1.0
 10
-14.4746
 20
-3.0932
 30
0.0
 10
-14.4746
 20
-3.0932
 30
0.0
 10
-14.9112
 20
-1.8654
 30
0.0
 10
-14.9112
 20
-1.8654
 30
0.0
  0
SPLINE
  5
BD
330
1F
100
AcDbEntity
  8
Ebene 1
370
    13
100
AcDbSpline
210
0.0
220
0.0
230
1.0
 70
    24
 71
     3
 72
     8
 73
     4
 74
     0
 42
0.0000000001
 43
0.0000000001
 40
0.0
 40
0.0
 40
0.0
 40
0.0
 40
1.0
 40
1.0
 40
1.0
 40
1.0
 10
-14.9112
 20
-1.8654
 30
0.0
 10
-14.9112
 20
-1.8654
 30
0.0
 10
-16.1389
 20
-2.3292
 30
0.0
 10
-16.1389
 20
-2.3292
 30
0.0
  0
SPLINE
  5
BE
330
1F
100
AcDbEntity
  8
Ebene 1
370
    13
100
AcDbSpline
210
0.0
220
0.0
230
1.0
 70
    24
 71
     3
 72
     8
 73
     4
 74
     0
 42
0.0000000001
 43
0.0000000001
 40
0.0
 40
0.0
 40
0.0
 40
0.0
 40
1.0
 40
1.0
 40
1.0
 40
1.0
 10
-16.1389
 20
-2.3292
 30
0.0
 10
-16.1389
 20
-2.3292
 30
0.0
 10
-15.7024
 20
-3.5297
 30
0.0
 10
-15.7024
 20
-3.5297
 30
0.0
  0
SPLINE
  5
BF
330
1F
100
AcDbEntity
  8
Ebene 1
370
    13
100
AcDbSpline
210
0.0
220
0.0
230
1.0
 70
    24
 71
     3
 72
     8
 73
     4
 74
     0
 42
0.0000000001
 43
0.0000000001
 40
0.0
 40
0.0
 40
0.0
 40
0.0
 40
1.0
 40
1.0
 40
1.0
 40
1.0
 10
-15.0749
 20
-3.3114
 30
0.0
 10
-15.0749
 20
-3.3114
 30
0.0
 10
-15.7024
 20
-3.5297
 30
0.0
 10
-15.7024
 20
-3.5297
 30
0.0
  0
SPLINE
  5
C0
330
1F
100
AcDbEntity
  8
Ebene 1
370
    13
100
AcDbSpline
210
0.0
220
0.0
230
1.0
 70
     8
 71
     3
 72
    24
 73
    20
 74
     0
 42
0.0000000001
 43
0.0000000001
 40
0.0
 40
0.0
 40
0.0
 40
0.0
 40
0.2
 40
0.2
 40
0.2
 40
0.2
 40
0.4
 40
0.4
 40
0.4
 40
0.4
 40
0.6000000000000001
 40
0.6000000000000001
 40
0.6000000000000001
 40
0.6000000000000001
 40
0.8
 40
0.8
 40
0.8
 40
0.8
 40
1.0
 40
1.0
 40
1.0
 40
1.0
 10
-15.1021
 20
-2.1109
 30
0.0
 10
-15.1021
 20
-2.1109
 30
0.0
 10
-15.1021
 20
-2.0836
 30
0.0
 10
-15.1021
 20
-2.0836
 30
0.0
 10
-15.1021
 20
-2.0836
 30
0.0
 10
-15.1021
 20
-2.0836
 30
0.0
 10
-15.0749
 20
-2.0836
 30
0.0
 10
-15.0749
 20
-2.0836
 30
0.0
 10
-15.0749
 20
-2.0836
 30
0.0
 10
-15.0749
 20
-2.0836
 30
0.0
 10
-15.0749
 20
-2.0563
 30
0.0
 10
-15.0749
 20
-2.0563
 30
0.0
 10
-15.0749
 20
-2.0563
 30
0.0
 10
-15.0749
 20
-2.0563
 30
0.0
 10
-15.1021
 20
-2.029
 30
0.0
 10
-15.1021
 20
-2.029
 30
0.0
 10
-15.1021
 20
-2.029
 30
0.0
 10
-15.1021
 20
-2.029
 30
0.0
 10
-15.1294
 20
-2.029
 30
0.0
 10
-15.1294
 20
-2.029
 30
0.0
  0
SPLINE
  5
C1
330
1F
100
AcDbEntity
  8
Ebene 1
370
    13
100
AcDbSpline
210
0.0
220
0.0
230
1.0
 70
    24
 71
     3
 72
     8
 73
     4
 74
     0
 42
0.0000000001
 43
0.0000000001
 40
0.0
 40
0.0
 40
0.0
 40
0.0
 40
1.0
 40
1.0
 40
1.0
 40
1.0
 10
-15.1021
 20
-2.1109
 30
0.0
 10
-15.1021
 20
-2.1109
 30
0.0
 10
-15.8388
 20
-2.3565
 30
0.0
 10
-15.8388
 20
-2.3565
 30
0.0
  0
SPLINE
  5
C2
330
1F
100
AcDbEntity
  8
Ebene 1
370
    13
100
AcDbSpline
210
0.0
220
0.0
230
1.0
 70
     8
 71
     3
 72
    28
 73
    24
 74
     0
 42
0.0000000001
 43
0.0000000001
 40
0.0
 40
0.0
 40
0.0
 40
0.0
 40
0.1666666666666667
 40
0.1666666666666667
 40
0.1666666666666667
 40
0.1666666666666667
 40
0.3333333333333333
 40
0.3333333333333333
 40
0.3333333333333333
 40
0.3333333333333333
 40
0.5
 40
0.5
 40
0.5
 40
0.5
 40
0.6666666666666666
 40
0.6666666666666666
 40
0.6666666666666666
 40
0.6666666666666666
 40
0.8333333333333333
 40
0.8333333333333333
 40
0.8333333333333333
 40
0.8333333333333333
 40
1.0
 40
1.0
 40
1.0
 40
1.0
 10
-15.8661
 20
-2.3019
 30
0.0
 10
-15.8661
 20
-2.3019
 30
0.0
 10
-15.8934
 20
-2.3019
 30
0.0
 10
-15.8934
 20
-2.3019
 30
0.0
 10
-15.8934
 20
-2.3019
 30
0.0
 10
-15.8934
 20
-2.3019
 30
0.0
 10
-15.8934
 20
-2.3292
 30
0.0
 10
-15.8934
 20
-2.3292
 30
0.0
 10
-15.8934
 20
-2.3292
 30
0.0
 10
-15.8934
 20
-2.3292
 30
0.0
 10
-15.8934
 20
-2.3565
 30
0.0
 10
-15.8934
 20
-2.3565
 30
0.0
 10
-15.8934
 20
-2.3565
 30
0.0
 10
-15.8934
 20
-2.3565
 30
0.0
 10
-15.8661
 20
-2.3565
 30
0.0
 10
-15.8661
 20
-2.3565
 30
0.0
 10
-15.8661
 20
-2.3565
 30
0.0
 10
-15.8661
 20
-2.3565
 30
0.0
 10
-15.8661
 20
-2.3838
 30
0.0
 10
-15.8661
 20
-2.3838
 30
0.0
 10
-15.8661
 20
-2.3838
 30
0.0
 10
-15.8661
 20
-2.3838
 30
0.0
 10
-15.8388
 20
-2.3565
 30
0.0
 10
-15.8388
 20
-2.3565
 30
0.0
  0
SPLINE
  5
C3
330
1F
100
AcDbEntity
  8
Ebene 1
370
    13
100
AcDbSpline
210
0.0
220
0.0
230
1.0
 70
    24
 71
     3
 72
     8
 73
     4
 74
     0
 42
0.0000000001
 43
0.0000000001
 40
0.0
 40
0.0
 40
0.0
 40
0.0
 40
1.0
 40
1.0
 40
1.0
 40
1.0
 10
-15.1294
 20
-2.029
 30
0.0
 10
-15.1294
 20
-2.029
 30
0.0
 10
-15.8661
 20
-2.3019
 30
0.0
 10
-15.8661
 20
-2.3019
 30
0.0
  0
SPLINE
  5
C4
330
1F
100
AcDbEntity
  8
Ebene 1
370
    13
100
AcDbSpline
210
0.0
220
0.0
230
1.0
 70
     8
 71
     3
 72
    24
 73
    20
 74
     0
 42
0.0000000001
 43
0.0000000001
 40
0.0
 40
0.0
 40
0.0
 40
0.0
 40
0.2
 40
0.2
 40
0.2
 40
0.2
 40
0.4
 40
0.4
 40
0.4
 40
0.4
 40
0.6000000000000001
 40
0.6000000000000001
 40
0.6000000000000001
 40
0.6000000000000001
 40
0.8
 40
0.8
 40
0.8
 40
0.8
 40
1.0
 40
1.0
 40
1.0
 40
1.0
 10
-15.3204
 20
-2.4929
 30
0.0
 10
-15.3204
 20
-2.4929
 30
0.0
 10
-15.2931
 20
-2.4656
 30
0.0
 10
-15.2931
 20
-2.4656
 30
0.0
 10
-15.2931
 20
-2.4656
 30
0.0
 10
-15.2931
 20
-2.4656
 30
0.0
 10
-15.2931
 20
-2.4383
 30
0.0
 10
-15.2931
 20
-2.4383
 30
0.0
 10
-15.2931
 20
-2.4383
 30
0.0
 10
-15.2931
 20
-2.4383
 30
0.0
 10
-15.2931
 20
-2.411
 30
0.0
 10
-15.2931
 20
-2.411
 30
0.0
 10
-15.2931
 20
-2.411
 30
0.0
 10
-15.2931
 20
-2.411
 30
0.0
 10
-15.3204
 20
-2.411
 30
0.0
 10
-15.3204
 20
-2.411
 30
0.0
 10
-15.3204
 20
-2.411
 30
0.0
 10
-15.3204
 20
-2.411
 30
0.0
 10
-15.3477
 20
-2.411
 30
0.0
 10
-15.3477
 20
-2.411
 30
0.0
  0
SPLINE
  5
C5
330
1F
100
AcDbEntity
  8
Ebene 1
370
    13
100
AcDbSpline
210
0.0
220
0.0
230
1.0
 70
    24
 71
     3
 72
     8
 73
     4
 74
     0
 42
0.0000000001
 43
0.0000000001
 40
0.0
 40
0.0
 40
0.0
 40
0.0
 40
1.0
 40
1.0
 40
1.0
 40
1.0
 10
-15.3204
 20
-2.4929
 30
0.0
 10
-15.3204
 20
-2.4929
 30
0.0
 10
-15.4569
 20
-2.5201
 30
0.0
 10
-15.4569
 20
-2.5201
 30
0.0
  0
SPLINE
  5
C6
330
1F
100
AcDbEntity
  8
Ebene 1
370
    13
100
AcDbSpline
210
0.0
220
0.0
230
1.0
 70
     8
 71
     3
 72
    20
 73
    16
 74
     0
 42
0.0000000001
 43
0.0000000001
 40
0.0
 40
0.0
 40
0.0
 40
0.0
 40
0.25
 40
0.25
 40
0.25
 40
0.25
 40
0.5
 40
0.5
 40
0.5
 40
0.5
 40
0.75
 40
0.75
 40
0.75
 40
0.75
 40
1.0
 40
1.0
 40
1.0
 40
1.0
 10
-15.4841
 20
-2.4656
 30
0.0
 10
-15.4841
 20
-2.4656
 30
0.0
 10
-15.4841
 20
-2.4656
 30
0.0
 10
-15.4841
 20
-2.4656
 30
0.0
 10
-15.4841
 20
-2.4656
 30
0.0
 10
-15.4841
 20
-2.4656
 30
0.0
 10
-15.4841
 20
-2.4929
 30
0.0
 10
-15.4841
 20
-2.4929
 30
0.0
 10
-15.4841
 20
-2.4929
 30
0.0
 10
-15.4841
 20
-2.4929
 30
0.0
 10
-15.4841
 20
-2.5201
 30
0.0
 10
-15.4841
 20
-2.5201
 30
0.0
 10
-15.4841
 20
-2.5201
 30
0.0
 10
-15.4841
 20
-2.5201
 30
0.0
 10
-15.4569
 20
-2.5201
 30
0.0
 10
-15.4569
 20
-2.5201
 30
0.0
  0
SPLINE
  5
C7
330
1F
100
AcDbEntity
  8
Ebene 1
370
    13
100
AcDbSpline
210
0.0
220
0.0
230
1.0
 70
    24
 71
     3
 72
     8
 73
     4
 74
     0
 42
0.0000000001
 43
0.0000000001
 40
0.0
 40
0.0
 40
0.0
 40
0.0
 40
1.0
 40
1.0
 40
1.0
 40
1.0
 10
-15.3477
 20
-2.411
 30
0.0
 10
-15.3477
 20
-2.411
 30
0.0
 10
-15.4841
 20
-2.4656
 30
0.0
 10
-15.4841
 20
-2.4656
 30
0.0
  0
SPLINE
  5
C8
330
1F
100
AcDbEntity
  8
Ebene 1
370
    13
100
AcDbSpline
210
0.0
220
0.0
230
1.0
 70
     8
 71
     3
 72
    24
 73
    20
 74
     0
 42
0.0000000001
 43
0.0000000001
 40
0.0
 40
0.0
 40
0.0
 40
0.0
 40
0.2
 40
0.2
 40
0.2
 40
0.2
 40
0.4
 40
0.4
 40
0.4
 40
0.4
 40
0.6000000000000001
 40
0.6000000000000001
 40
0.6000000000000001
 40
0.6000000000000001
 40
0.8
 40
0.8
 40
0.8
 40
0.8
 40
1.0
 40
1.0
 40
1.0
 40
1.0
 10
-15.2113
 20
-2.3019
 30
0.0
 10
-15.2113
 20
-2.3019
 30
0.0
 10
-15.184
 20
-2.2746
 30
0.0
 10
-15.184
 20
-2.2746
 30
0.0
 10
-15.184
 20
-2.2746
 30
0.0
 10
-15.184
 20
-2.2746
 30
0.0
 10
-15.184
 20
-2.2474
 30
0.0
 10
-15.184
 20
-2.2474
 30
0.0
 10
-15.184
 20
-2.2474
 30
0.0
 10
-15.184
 20
-2.2474
 30
0.0
 10
-15.184
 20
-2.2201
 30
0.0
 10
-15.184
 20
-2.2201
 30
0.0
 10
-15.184
 20
-2.2201
 30
0.0
 10
-15.184
 20
-2.2201
 30
0.0
 10
-15.2113
 20
-2.2201
 30
0.0
 10
-15.2113
 20
-2.2201
 30
0.0
 10
-15.2113
 20
-2.2201
 30
0.0
 10
-15.2113
 20
-2.2201
 30
0.0
 10
-15.2385
 20
-2.2201
 30
0.0
 10
-15.2385
 20
-2.2201
 30
0.0
  0
SPLINE
  5
C9
330
1F
100
AcDbEntity
  8
Ebene 1
370
    13
100
AcDbSpline
210
0.0
220
0.0
230
1.0
 70
    24
 71
     3
 72
     8
 73
     4
 74
     0
 42
0.0000000001
 43
0.0000000001
 40
0.0
 40
0.0
 40
0.0
 40
0.0
 40
1.0
 40
1.0
 40
1.0
 40
1.0
 10
-15.2113
 20
-2.3019
 30
0.0
 10
-15.2113
 20
-2.3019
 30
0.0
 10
-15.6478
 20
-2.4383
 30
0.0
 10
-15.6478
 20
-2.4383
 30
0.0
  0
SPLINE
  5
CA
330
1F
100
AcDbEntity
  8
Ebene 1
370
    13
100
AcDbSpline
210
0.0
220
0.0
230
1.0
 70
     8
 71
     3
 72
    24
 73
    20
 74
     0
 42
0.0000000001
 43
0.0000000001
 40
0.0
 40
0.0
 40
0.0
 40
0.0
 40
0.2
 40
0.2
 40
0.2
 40
0.2
 40
0.4
 40
0.4
 40
0.4
 40
0.4
 40
0.6000000000000001
 40
0.6000000000000001
 40
0.6000000000000001
 40
0.6000000000000001
 40
0.8
 40
0.8
 40
0.8
 40
0.8
 40
1.0
 40
1.0
 40
1.0
 40
1.0
 10
-15.6751
 20
-2.3838
 30
0.0
 10
-15.6751
 20
-2.3838
 30
0.0
 10
-15.6751
 20
-2.3838
 30
0.0
 10
-15.6751
 20
-2.3838
 30
0.0
 10
-15.6751
 20
-2.3838
 30
0.0
 10
-15.6751
 20
-2.3838
 30
0.0
 10
-15.7024
 20
-2.411
 30
0.0
 10
-15.7024
 20
-2.411
 30
0.0
 10
-15.7024
 20
-2.411
 30
0.0
 10
-15.7024
 20
-2.411
 30
0.0
 10
-15.7024
 20
-2.4383
 30
0.0
 10
-15.7024
 20
-2.4383
 30
0.0
 10
-15.7024
 20
-2.4383
 30
0.0
 10
-15.7024
 20
-2.4383
 30
0.0
 10
-15.6751
 20
-2.4383
 30
0.0
 10
-15.6751
 20
-2.4383
 30
0.0
 10
-15.6751
 20
-2.4383
 30
0.0
 10
-15.6751
 20
-2.4383
 30
0.0
 10
-15.6478
 20
-2.4383
 30
0.0
 10
-15.6478
 20
-2.4383
 30
0.0
  0
SPLINE
  5
CB
330
1F
100
AcDbEntity
  8
Ebene 1
370
    13
100
AcDbSpline
210
0.0
220
0.0
230
1.0
 70
    24
 71
     3
 72
     8
 73
     4
 74
     0
 42
0.0000000001
 43
0.0000000001
 40
0.0
 40
0.0
 40
0.0
 40
0.0
 40
1.0
 40
1.0
 40
1.0
 40
1.0
 10
-15.2385
 20
-2.2201
 30
0.0
 10
-15.2385
 20
-2.2201
 30
0.0
 10
-15.6751
 20
-2.3838
 30
0.0
 10
-15.6751
 20
-2.3838
 30
0.0
  0
SPLINE
  5
CC
330
1F
100
AcDbEntity
  8
Ebene 1
370
    13
100
AcDbSpline
210
0.0
220
0.0
230
1.0
 70
    24
 71
     3
 72
     8
 73
     4
 74
     0
 42
0.0000000001
 43
0.0000000001
 40
0.0
 40
0.0
 40
0.0
 40
0.0
 40
1.0
 40
1.0
 40
1.0
 40
1.0
 10
-15.8388
 20
-2.9021
 30
0.0
 10
-15.8388
 20
-2.9021
 30
0.0
 10
-15.7024
 20
-3.2841
 30
0.0
 10
-15.7024
 20
-3.2841
 30
0.0
  0
SPLINE
  5
CD
330
1F
100
AcDbEntity
  8
Ebene 1
370
    13
100
AcDbSpline
210
0.0
220
0.0
230
1.0
 70
    24
 71
     3
 72
     8
 73
     4
 74
     0
 42
0.0000000001
 43
0.0000000001
 40
0.0
 40
0.0
 40
0.0
 40
0.0
 40
1.0
 40
1.0
 40
1.0
 40
1.0
 10
-15.8388
 20
-2.9021
 30
0.0
 10
-15.8388
 20
-2.9021
 30
0.0
 10
-15.9752
 20
-2.5201
 30
0.0
 10
-15.9752
 20
-2.5201
 30
0.0
  0
SPLINE
  5
CE
330
1F
100
AcDbEntity
  8
Ebene 1
370
    13
100
AcDbSpline
210
0.0
220
0.0
230
1.0
 70
     8
 71
     3
 72
    20
 73
    16
 74
     0
 42
0.0000000001
 43
0.0000000001
 40
0.0
 40
0.0
 40
0.0
 40
0.0
 40
0.25
 40
0.25
 40
0.25
 40
0.25
 40
0.5
 40
0.5
 40
0.5
 40
0.5
 40
0.75
 40
0.75
 40
0.75
 40
0.75
 40
1.0
 40
1.0
 40
1.0
 40
1.0
 10
-15.9207
 20
-2.5201
 30
0.0
 10
-15.9207
 20
-2.5201
 30
0.0
 10
-15.9207
 20
-2.4929
 30
0.0
 10
-15.9207
 20
-2.4929
 30
0.0
 10
-15.9207
 20
-2.4929
 30
0.0
 10
-15.9207
 20
-2.4929
 30
0.0
 10
-15.948
 20
-2.4929
 30
0.0
 10
-15.948
 20
-2.4929
 30
0.0
 10
-15.948
 20
-2.4929
 30
0.0
 10
-15.948
 20
-2.4929
 30
0.0
 10
-15.9752
 20
-2.4929
 30
0.0
 10
-15.9752
 20
-2.4929
 30
0.0
 10
-15.9752
 20
-2.4929
 30
0.0
 10
-15.9752
 20
-2.4929
 30
0.0
 10
-15.9752
 20
-2.5201
 30
0.0
 10
-15.9752
 20
-2.5201
 30
0.0
  0
SPLINE
  5
CF
330
1F
100
AcDbEntity
  8
Ebene 1
370
    13
100
AcDbSpline
210
0.0
220
0.0
230
1.0
 70
    24
 71
     3
 72
     8
 73
     4
 74
     0
 42
0.0000000001
 43
0.0000000001
 40
0.0
 40
0.0
 40
0.0
 40
0.0
 40
1.0
 40
1.0
 40
1.0
 40
1.0
 10
-15.7843
 20
-2.8749
 30
0.0
 10
-15.7843
 20
-2.8749
 30
0.0
 10
-15.9207
 20
-2.5201
 30
0.0
 10
-15.9207
 20
-2.5201
 30
0.0
  0
SPLINE
  5
D0
330
1F
100
AcDbEntity
  8
Ebene 1
370
    13
100
AcDbSpline
210
0.0
220
0.0
230
1.0
 70
    24
 71
     3
 72
     8
 73
     4
 74
     0
 42
0.0000000001
 43
0.0000000001
 40
0.0
 40
0.0
 40
0.0
 40
0.0
 40
1.0
 40
1.0
 40
1.0
 40
1.0
 10
-15.7843
 20
-2.8749
 30
0.0
 10
-15.7843
 20
-2.8749
 30
0.0
 10
-15.6478
 20
-3.2568
 30
0.0
 10
-15.6478
 20
-3.2568
 30
0.0
  0
SPLINE
  5
D1
330
1F
100
AcDbEntity
  8
Ebene 1
370
    13
100
AcDbSpline
210
0.0
220
0.0
230
1.0
 70
     8
 71
     3
 72
    20
 73
    16
 74
     0
 42
0.0000000001
 43
0.0000000001
 40
0.0
 40
0.0
 40
0.0
 40
0.0
 40
0.25
 40
0.25
 40
0.25
 40
0.25
 40
0.5
 40
0.5
 40
0.5
 40
0.5
 40
0.75
 40
0.75
 40
0.75
 40
0.75
 40
1.0
 40
1.0
 40
1.0
 40
1.0
 10
-15.7024
 20
-3.2841
 30
0.0
 10
-15.7024
 20
-3.2841
 30
0.0
 10
-15.7024
 20
-3.2841
 30
0.0
 10
-15.7024
 20
-3.2841
 30
0.0
 10
-15.7024
 20
-3.2841
 30
0.0
 10
-15.7024
 20
-3.2841
 30
0.0
 10
-15.6751
 20
-3.3114
 30
0.0
 10
-15.6751
 20
-3.3114
 30
0.0
 10
-15.6751
 20
-3.3114
 30
0.0
 10
-15.6751
 20
-3.3114
 30
0.0
 10
-15.6478
 20
-3.2841
 30
0.0
 10
-15.6478
 20
-3.2841
 30
0.0
 10
-15.6478
 20
-3.2841
 30
0.0
 10
-15.6478
 20
-3.2841
 30
0.0
 10
-15.6478
 20
-3.2568
 30
0.0
 10
-15.6478
 20
-3.2568
 30
0.0
  0
SPLINE
  5
D2
330
1F
100
AcDbEntity
  8
Ebene 1
370
    13
100
AcDbSpline
210
0.0
220
0.0
230
1.0
 70
    24
 71
     3
 72
     8
 73
     4
 74
     0
 42
0.0000000001
 43
0.0000000001
 40
0.0
 40
0.0
 40
0.0
 40
0.0
 40
1.0
 40
1.0
 40
1.0
 40
1.0
 10
-15.5932
 20
-2.7385
 30
0.0
 10
-15.5932
 20
-2.7385
 30
0.0
 10
-15.5387
 20
-2.8749
 30
0.0
 10
-15.5387
 20
-2.8749
 30
0.0
  0
SPLINE
  5
D3
330
1F
100
AcDbEntity
  8
Ebene 1
370
    13
100
AcDbSpline
210
0.0
220
0.0
230
1.0
 70
     8
 71
     3
 72
    24
 73
    20
 74
     0
 42
0.0000000001
 43
0.0000000001
 40
0.0
 40
0.0
 40
0.0
 40
0.0
 40
0.2
 40
0.2
 40
0.2
 40
0.2
 40
0.4
 40
0.4
 40
0.4
 40
0.4
 40
0.6000000000000001
 40
0.6000000000000001
 40
0.6000000000000001
 40
0.6000000000000001
 40
0.8
 40
0.8
 40
0.8
 40
0.8
 40
1.0
 40
1.0
 40
1.0
 40
1.0
 10
-15.5387
 20
-2.7112
 30
0.0
 10
-15.5387
 20
-2.7112
 30
0.0
 10
-15.5387
 20
-2.7112
 30
0.0
 10
-15.5387
 20
-2.7112
 30
0.0
 10
-15.5387
 20
-2.7112
 30
0.0
 10
-15.5387
 20
-2.7112
 30
0.0
 10
-15.5387
 20
-2.6839
 30
0.0
 10
-15.5387
 20
-2.6839
 30
0.0
 10
-15.5387
 20
-2.6839
 30
0.0
 10
-15.5387
 20
-2.6839
 30
0.0
 10
-15.566
 20
-2.6839
 30
0.0
 10
-15.566
 20
-2.6839
 30
0.0
 10
-15.566
 20
-2.6839
 30
0.0
 10
-15.566
 20
-2.6839
 30
0.0
 10
-15.5932
 20
-2.7112
 30
0.0
 10
-15.5932
 20
-2.7112
 30
0.0
 10
-15.5932
 20
-2.7112
 30
0.0
 10
-15.5932
 20
-2.7112
 30
0.0
 10
-15.5932
 20
-2.7385
 30
0.0
 10
-15.5932
 20
-2.7385
 30
0.0
  0
SPLINE
  5
D4
330
1F
100
AcDbEntity
  8
Ebene 1
370
    13
100
AcDbSpline
210
0.0
220
0.0
230
1.0
 70
    24
 71
     3
 72
     8
 73
     4
 74
     0
 42
0.0000000001
 43
0.0000000001
 40
0.0
 40
0.0
 40
0.0
 40
0.0
 40
1.0
 40
1.0
 40
1.0
 40
1.0
 10
-15.5387
 20
-2.7112
 30
0.0
 10
-15.5387
 20
-2.7112
 30
0.0
 10
-15.4841
 20
-2.8476
 30
0.0
 10
-15.4841
 20
-2.8476
 30
0.0
  0
SPLINE
  5
D5
330
1F
100
AcDbEntity
  8
Ebene 1
370
    13
100
AcDbSpline
210
0.0
220
0.0
230
1.0
 70
     8
 71
     3
 72
    24
 73
    20
 74
     0
 42
0.0000000001
 43
0.0000000001
 40
0.0
 40
0.0
 40
0.0
 40
0.0
 40
0.2
 40
0.2
 40
0.2
 40
0.2
 40
0.4
 40
0.4
 40
0.4
 40
0.4
 40
0.6000000000000001
 40
0.6000000000000001
 40
0.6000000000000001
 40
0.6000000000000001
 40
0.8
 40
0.8
 40
0.8
 40
0.8
 40
1.0
 40
1.0
 40
1.0
 40
1.0
 10
-15.5387
 20
-2.8749
 30
0.0
 10
-15.5387
 20
-2.8749
 30
0.0
 10
-15.5387
 20
-2.8749
 30
0.0
 10
-15.5387
 20
-2.8749
 30
0.0
 10
-15.5387
 20
-2.8749
 30
0.0
 10
-15.5387
 20
-2.8749
 30
0.0
 10
-15.5387
 20
-2.9021
 30
0.0
 10
-15.5387
 20
-2.9021
 30
0.0
 10
-15.5387
 20
-2.9021
 30
0.0
 10
-15.5387
 20
-2.9021
 30
0.0
 10
-15.5114
 20
-2.9021
 30
0.0
 10
-15.5114
 20
-2.9021
 30
0.0
 10
-15.5114
 20
-2.9021
 30
0.0
 10
-15.5114
 20
-2.9021
 30
0.0
 10
-15.4841
 20
-2.8749
 30
0.0
 10
-15.4841
 20
-2.8749
 30
0.0
 10
-15.4841
 20
-2.8749
 30
0.0
 10
-15.4841
 20
-2.8749
 30
0.0
 10
-15.4841
 20
-2.8476
 30
0.0
 10
-15.4841
 20
-2.8476
 30
0.0
  0
SPLINE
  5
D6
330
1F
100
AcDbEntity
  8
Ebene 1
370
    13
100
AcDbSpline
210
0.0
220
0.0
230
1.0
 70
     8
 71
     3
 72
    24
 73
    20
 74
     0
 42
0.0000000001
 43
0.0000000001
 40
0.0
 40
0.0
 40
0.0
 40
0.0
 40
0.2
 40
0.2
 40
0.2
 40
0.2
 40
0.4
 40
0.4
 40
0.4
 40
0.4
 40
0.6000000000000001
 40
0.6000000000000001
 40
0.6000000000000001
 40
0.6000000000000001
 40
0.8
 40
0.8
 40
0.8
 40
0.8
 40
1.0
 40
1.0
 40
1.0
 40
1.0
 10
-14.9385
 20
-3.0386
 30
0.0
 10
-14.9385
 20
-3.0386
 30
0.0
 10
-14.9385
 20
-3.0386
 30
0.0
 10
-14.9385
 20
-3.0386
 30
0.0
 10
-14.9385
 20
-3.0386
 30
0.0
 10
-14.9385
 20
-3.0386
 30
0.0
 10
-14.9112
 20
-3.0113
 30
0.0
 10
-14.9112
 20
-3.0113
 30
0.0
 10
-14.9112
 20
-3.0113
 30
0.0
 10
-14.9112
 20
-3.0113
 30
0.0
 10
-14.9112
 20
-2.984
 30
0.0
 10
-14.9112
 20
-2.984
 30
0.0
 10
-14.9112
 20
-2.984
 30
0.0
 10
-14.9112
 20
-2.984
 30
0.0
 10
-14.9385
 20
-2.9567
 30
0.0
 10
-14.9385
 20
-2.9567
 30
0.0
 10
-14.9385
 20
-2.9567
 30
0.0
 10
-14.9385
 20
-2.9567
 30
0.0
 10
-14.9658
 20
-2.9567
 30
0.0
 10
-14.9658
 20
-2.9567
 30
0.0
  0
SPLINE
  5
D7
330
1F
100
AcDbEntity
  8
Ebene 1
370
    13
100
AcDbSpline
210
0.0
220
0.0
230
1.0
 70
    24
 71
     3
 72
     8
 73
     4
 74
     0
 42
0.0000000001
 43
0.0000000001
 40
0.0
 40
0.0
 40
0.0
 40
0.0
 40
1.0
 40
1.0
 40
1.0
 40
1.0
 10
-15.1567
 20
-3.1205
 30
0.0
 10
-15.1567
 20
-3.1205
 30
0.0
 10
-14.9385
 20
-3.0386
 30
0.0
 10
-14.9385
 20
-3.0386
 30
0.0
  0
SPLINE
  5
D8
330
1F
100
AcDbEntity
  8
Ebene 1
370
    13
100
AcDbSpline
210
0.0
220
0.0
230
1.0
 70
    24
 71
     3
 72
     8
 73
     4
 74
     0
 42
0.0000000001
 43
0.0000000001
 40
0.0
 40
0.0
 40
0.0
 40
0.0
 40
1.0
 40
1.0
 40
1.0
 40
1.0
 10
-15.1567
 20
-3.1205
 30
0.0
 10
-15.1567
 20
-3.1205
 30
0.0
 10
-15.375
 20
-3.2023
 30
0.0
 10
-15.375
 20
-3.2023
 30
0.0
  0
SPLINE
  5
D9
330
1F
100
AcDbEntity
  8
Ebene 1
370
    13
100
AcDbSpline
210
0.0
220
0.0
230
1.0
 70
     8
 71
     3
 72
    28
 73
    24
 74
     0
 42
0.0000000001
 43
0.0000000001
 40
0.0
 40
0.0
 40
0.0
 40
0.0
 40
0.1666666666666667
 40
0.1666666666666667
 40
0.1666666666666667
 40
0.1666666666666667
 40
0.3333333333333333
 40
0.3333333333333333
 40
0.3333333333333333
 40
0.3333333333333333
 40
0.5
 40
0.5
 40
0.5
 40
0.5
 40
0.6666666666666666
 40
0.6666666666666666
 40
0.6666666666666666
 40
0.6666666666666666
 40
0.8333333333333333
 40
0.8333333333333333
 40
0.8333333333333333
 40
0.8333333333333333
 40
1.0
 40
1.0
 40
1.0
 40
1.0
 10
-15.4023
 20
-3.1205
 30
0.0
 10
-15.4023
 20
-3.1205
 30
0.0
 10
-15.4023
 20
-3.1205
 30
0.0
 10
-15.4023
 20
-3.1205
 30
0.0
 10
-15.4023
 20
-3.1205
 30
0.0
 10
-15.4023
 20
-3.1205
 30
0.0
 10
-15.4296
 20
-3.1477
 30
0.0
 10
-15.4296
 20
-3.1477
 30
0.0
 10
-15.4296
 20
-3.1477
 30
0.0
 10
-15.4296
 20
-3.1477
 30
0.0
 10
-15.4296
 20
-3.175
 30
0.0
 10
-15.4296
 20
-3.175
 30
0.0
 10
-15.4296
 20
-3.175
 30
0.0
 10
-15.4296
 20
-3.175
 30
0.0
 10
-15.4023
 20
-3.175
 30
0.0
 10
-15.4023
 20
-3.175
 30
0.0
 10
-15.4023
 20
-3.175
 30
0.0
 10
-15.4023
 20
-3.175
 30
0.0
 10
-15.4023
 20
-3.2023
 30
0.0
 10
-15.4023
 20
-3.2023
 30
0.0
 10
-15.4023
 20
-3.2023
 30
0.0
 10
-15.4023
 20
-3.2023
 30
0.0
 10
-15.375
 20
-3.2023
 30
0.0
 10
-15.375
 20
-3.2023
 30
0.0
  0
SPLINE
  5
DA
330
1F
100
AcDbEntity
  8
Ebene 1
370
    13
100
AcDbSpline
210
0.0
220
0.0
230
1.0
 70
    24
 71
     3
 72
     8
 73
     4
 74
     0
 42
0.0000000001
 43
0.0000000001
 40
0.0
 40
0.0
 40
0.0
 40
0.0
 40
1.0
 40
1.0
 40
1.0
 40
1.0
 10
-15.4023
 20
-3.1205
 30
0.0
 10
-15.4023
 20
-3.1205
 30
0.0
 10
-14.9658
 20
-2.9567
 30
0.0
 10
-14.9658
 20
-2.9567
 30
0.0
  0
SPLINE
  5
DB
330
1F
100
AcDbEntity
  8
Ebene 1
370
    13
100
AcDbSpline
210
0.0
220
0.0
230
1.0
 70
    24
 71
     3
 72
     8
 73
     4
 74
     0
 42
0.0000000001
 43
0.0000000001
 40
0.0
 40
0.0
 40
0.0
 40
0.0
 40
1.0
 40
1.0
 40
1.0
 40
1.0
 10
-14.8293
 20
-2.793
 30
0.0
 10
-14.8293
 20
-2.793
 30
0.0
 10
-14.9658
 20
-2.3292
 30
0.0
 10
-14.9658
 20
-2.3292
 30
0.0
  0
SPLINE
  5
DC
330
1F
100
AcDbEntity
  8
Ebene 1
370
    13
100
AcDbSpline
210
0.0
220
0.0
230
1.0
 70
     8
 71
     3
 72
    20
 73
    16
 74
     0
 42
0.0000000001
 43
0.0000000001
 40
0.0
 40
0.0
 40
0.0
 40
0.0
 40
0.25
 40
0.25
 40
0.25
 40
0.25
 40
0.5
 40
0.5
 40
0.5
 40
0.5
 40
0.75
 40
0.75
 40
0.75
 40
0.75
 40
1.0
 40
1.0
 40
1.0
 40
1.0
 10
-14.8839
 20
-2.793
 30
0.0
 10
-14.8839
 20
-2.793
 30
0.0
 10
-14.8839
 20
-2.8203
 30
0.0
 10
-14.8839
 20
-2.8203
 30
0.0
 10
-14.8839
 20
-2.8203
 30
0.0
 10
-14.8839
 20
-2.8203
 30
0.0
 10
-14.8566
 20
-2.8203
 30
0.0
 10
-14.8566
 20
-2.8203
 30
0.0
 10
-14.8566
 20
-2.8203
 30
0.0
 10
-14.8566
 20
-2.8203
 30
0.0
 10
-14.8293
 20
-2.8203
 30
0.0
 10
-14.8293
 20
-2.8203
 30
0.0
 10
-14.8293
 20
-2.8203
 30
0.0
 10
-14.8293
 20
-2.8203
 30
0.0
 10
-14.8293
 20
-2.793
 30
0.0
 10
-14.8293
 20
-2.793
 30
0.0
  0
SPLINE
  5
DD
330
1F
100
AcDbEntity
  8
Ebene 1
370
    13
100
AcDbSpline
210
0.0
220
0.0
230
1.0
 70
    24
 71
     3
 72
     8
 73
     4
 74
     0
 42
0.0000000001
 43
0.0000000001
 40
0.0
 40
0.0
 40
0.0
 40
0.0
 40
1.0
 40
1.0
 40
1.0
 40
1.0
 10
-14.8839
 20
-2.793
 30
0.0
 10
-14.8839
 20
-2.793
 30
0.0
 10
-15.0476
 20
-2.3565
 30
0.0
 10
-15.0476
 20
-2.3565
 30
0.0
  0
SPLINE
  5
DE
330
1F
100
AcDbEntity
  8
Ebene 1
370
    13
100
AcDbSpline
210
0.0
220
0.0
230
1.0
 70
     8
 71
     3
 72
    20
 73
    16
 74
     0
 42
0.0000000001
 43
0.0000000001
 40
0.0
 40
0.0
 40
0.0
 40
0.0
 40
0.25
 40
0.25
 40
0.25
 40
0.25
 40
0.5
 40
0.5
 40
0.5
 40
0.5
 40
0.75
 40
0.75
 40
0.75
 40
0.75
 40
1.0
 40
1.0
 40
1.0
 40
1.0
 10
-14.9658
 20
-2.3292
 30
0.0
 10
-14.9658
 20
-2.3292
 30
0.0
 10
-14.993
 20
-2.3292
 30
0.0
 10
-14.993
 20
-2.3292
 30
0.0
 10
-14.993
 20
-2.3292
 30
0.0
 10
-14.993
 20
-2.3292
 30
0.0
 10
-15.0203
 20
-2.3292
 30
0.0
 10
-15.0203
 20
-2.3292
 30
0.0
 10
-15.0203
 20
-2.3292
 30
0.0
 10
-15.0203
 20
-2.3292
 30
0.0
 10
-15.0476
 20
-2.3292
 30
0.0
 10
-15.0476
 20
-2.3292
 30
0.0
 10
-15.0476
 20
-2.3292
 30
0.0
 10
-15.0476
 20
-2.3292
 30
0.0
 10
-15.0476
 20
-2.3565
 30
0.0
 10
-15.0476
 20
-2.3565
 30
0.0
  0
SPLINE
  5
DF
330
1F
100
AcDbEntity
  8
Ebene 1
370
    13
100
AcDbSpline
210
0.0
220
0.0
230
1.0
 70
    24
 71
     3
 72
     8
 73
     4
 74
     0
 42
0.0000000001
 43
0.0000000001
 40
0.0
 40
0.0
 40
0.0
 40
0.0
 40
1.0
 40
1.0
 40
1.0
 40
1.0
 10
-14.7747
 20
-2.5201
 30
0.0
 10
-14.7747
 20
-2.5201
 30
0.0
 10
-14.9112
 20
-2.1382
 30
0.0
 10
-14.9112
 20
-2.1382
 30
0.0
  0
SPLINE
  5
E0
330
1F
100
AcDbEntity
  8
Ebene 1
370
    13
100
AcDbSpline
210
0.0
220
0.0
230
1.0
 70
    24
 71
     3
 72
     8
 73
     4
 74
     0
 42
0.0000000001
 43
0.0000000001
 40
0.0
 40
0.0
 40
0.0
 40
0.0
 40
1.0
 40
1.0
 40
1.0
 40
1.0
 10
-14.7747
 20
-2.5201
 30
0.0
 10
-14.7747
 20
-2.5201
 30
0.0
 10
-14.6383
 20
-2.8749
 30
0.0
 10
-14.6383
 20
-2.8749
 30
0.0
  0
SPLINE
  5
E1
330
1F
100
AcDbEntity
  8
Ebene 1
370
    13
100
AcDbSpline
210
0.0
220
0.0
230
1.0
 70
     8
 71
     3
 72
    24
 73
    20
 74
     0
 42
0.0000000001
 43
0.0000000001
 40
0.0
 40
0.0
 40
0.0
 40
0.0
 40
0.2
 40
0.2
 40
0.2
 40
0.2
 40
0.4
 40
0.4
 40
0.4
 40
0.4
 40
0.6000000000000001
 40
0.6000000000000001
 40
0.6000000000000001
 40
0.6000000000000001
 40
0.8
 40
0.8
 40
0.8
 40
0.8
 40
1.0
 40
1.0
 40
1.0
 40
1.0
 10
-14.6929
 20
-2.9021
 30
0.0
 10
-14.6929
 20
-2.9021
 30
0.0
 10
-14.6929
 20
-2.9294
 30
0.0
 10
-14.6929
 20
-2.9294
 30
0.0
 10
-14.6929
 20
-2.9294
 30
0.0
 10
-14.6929
 20
-2.9294
 30
0.0
 10
-14.6656
 20
-2.9294
 30
0.0
 10
-14.6656
 20
-2.9294
 30
0.0
 10
-14.6656
 20
-2.9294
 30
0.0
 10
-14.6656
 20
-2.9294
 30
0.0
 10
-14.6383
 20
-2.9294
 30
0.0
 10
-14.6383
 20
-2.9294
 30
0.0
 10
-14.6383
 20
-2.9294
 30
0.0
 10
-14.6383
 20
-2.9294
 30
0.0
 10
-14.6383
 20
-2.9021
 30
0.0
 10
-14.6383
 20
-2.9021
 30
0.0
 10
-14.6383
 20
-2.9021
 30
0.0
 10
-14.6383
 20
-2.9021
 30
0.0
 10
-14.6383
 20
-2.8749
 30
0.0
 10
-14.6383
 20
-2.8749
 30
0.0
  0
SPLINE
  5
E2
330
1F
100
AcDbEntity
  8
Ebene 1
370
    13
100
AcDbSpline
210
0.0
220
0.0
230
1.0
 70
    24
 71
     3
 72
     8
 73
     4
 74
     0
 42
0.0000000001
 43
0.0000000001
 40
0.0
 40
0.0
 40
0.0
 40
0.0
 40
1.0
 40
1.0
 40
1.0
 40
1.0
 10
-14.8293
 20
-2.5474
 30
0.0
 10
-14.8293
 20
-2.5474
 30
0.0
 10
-14.6929
 20
-2.9021
 30
0.0
 10
-14.6929
 20
-2.9021
 30
0.0
  0
SPLINE
  5
E3
330
1F
100
AcDbEntity
  8
Ebene 1
370
    13
100
AcDbSpline
210
0.0
220
0.0
230
1.0
 70
    24
 71
     3
 72
     8
 73
     4
 74
     0
 42
0.0000000001
 43
0.0000000001
 40
0.0
 40
0.0
 40
0.0
 40
0.0
 40
1.0
 40
1.0
 40
1.0
 40
1.0
 10
-14.8293
 20
-2.5474
 30
0.0
 10
-14.8293
 20
-2.5474
 30
0.0
 10
-14.9658
 20
-2.1655
 30
0.0
 10
-14.9658
 20
-2.1655
 30
0.0
  0
SPLINE
  5
E4
330
1F
100
AcDbEntity
  8
Ebene 1
370
    13
100
AcDbSpline
210
0.0
220
0.0
230
1.0
 70
     8
 71
     3
 72
    28
 73
    24
 74
     0
 42
0.0000000001
 43
0.0000000001
 40
0.0
 40
0.0
 40
0.0
 40
0.0
 40
0.1666666666666667
 40
0.1666666666666667
 40
0.1666666666666667
 40
0.1666666666666667
 40
0.3333333333333333
 40
0.3333333333333333
 40
0.3333333333333333
 40
0.3333333333333333
 40
0.5
 40
0.5
 40
0.5
 40
0.5
 40
0.6666666666666666
 40
0.6666666666666666
 40
0.6666666666666666
 40
0.6666666666666666
 40
0.8333333333333333
 40
0.8333333333333333
 40
0.8333333333333333
 40
0.8333333333333333
 40
1.0
 40
1.0
 40
1.0
 40
1.0
 10
-14.9112
 20
-2.1382
 30
0.0
 10
-14.9112
 20
-2.1382
 30
0.0
 10
-14.9112
 20
-2.1382
 30
0.0
 10
-14.9112
 20
-2.1382
 30
0.0
 10
-14.9112
 20
-2.1382
 30
0.0
 10
-14.9112
 20
-2.1382
 30
0.0
 10
-14.9112
 20
-2.1109
 30
0.0
 10
-14.9112
 20
-2.1109
 30
0.0
 10
-14.9112
 20
-2.1109
 30
0.0
 10
-14.9112
 20
-2.1109
 30
0.0
 10
-14.9385
 20
-2.1109
 30
0.0
 10
-14.9385
 20
-2.1109
 30
0.0
 10
-14.9385
 20
-2.1109
 30
0.0
 10
-14.9385
 20
-2.1109
 30
0.0
 10
-14.9658
 20
-2.1109
 30
0.0
 10
-14.9658
 20
-2.1109
 30
0.0
 10
-14.9658
 20
-2.1109
 30
0.0
 10
-14.9658
 20
-2.1109
 30
0.0
 10
-14.9658
 20
-2.1382
 30
0.0
 10
-14.9658
 20
-2.1382
 30
0.0
 10
-14.9658
 20
-2.1382
 30
0.0
 10
-14.9658
 20
-2.1382
 30
0.0
 10
-14.9658
 20
-2.1655
 30
0.0
 10
-14.9658
 20
-2.1655
 30
0.0
  0
SPLINE
  5
E5
330
1F
100
AcDbEntity
  8
Ebene 1
370
    13
100
AcDbSpline
210
0.0
220
0.0
230
1.0
 70
    24
 71
     3
 72
     8
 73
     4
 74
     0
 42
0.0000000001
 43
0.0000000001
 40
0.0
 40
0.0
 40
0.0
 40
0.0
 40
1.0
 40
1.0
 40
1.0
 40
1.0
 10
-11.9918
 20
-3.2841
 30
0.0
 10
-11.9918
 20
-3.2841
 30
0.0
 10
-11.9918
 20
-2.3292
 30
0.0
 10
-11.9918
 20
-2.3292
 30
0.0
  0
SPLINE
  5
E6
330
1F
100
AcDbEntity
  8
Ebene 1
370
    13
100
AcDbSpline
210
0.0
220
0.0
230
1.0
 70
     8
 71
     3
 72
    36
 73
    32
 74
     0
 42
0.0000000001
 43
0.0000000001
 40
0.0
 40
0.0
 40
0.0
 40
0.0
 40
0.125
 40
0.125
 40
0.125
 40
0.125
 40
0.25
 40
0.25
 40
0.25
 40
0.25
 40
0.375
 40
0.375
 40
0.375
 40
0.375
 40
0.5
 40
0.5
 40
0.5
 40
0.5
 40
0.625
 40
0.625
 40
0.625
 40
0.625
 40
0.75
 40
0.75
 40
0.75
 40
0.75
 40
0.875
 40
0.875
 40
0.875
 40
0.875
 40
1.0
 40
1.0
 40
1.0
 40
1.0
 10
-11.9918
 20
-2.3292
 30
0.0
 10
-11.9918
 20
-2.3292
 30
0.0
 10
-11.9918
 20
-2.3019
 30
0.0
 10
-11.9918
 20
-2.3019
 30
0.0
 10
-11.9918
 20
-2.3019
 30
0.0
 10
-11.9918
 20
-2.3019
 30
0.0
 10
-12.0191
 20
-2.2746
 30
0.0
 10
-12.0191
 20
-2.2746
 30
0.0
 10
-12.0191
 20
-2.2746
 30
0.0
 10
-12.0191
 20
-2.2746
 30
0.0
 10
-12.0191
 20
-2.2474
 30
0.0
 10
-12.0191
 20
-2.2474
 30
0.0
 10
-12.0191
 20
-2.2474
 30
0.0
 10
-12.0191
 20
-2.2474
 30
0.0
 10
-12.0463
 20
-2.2201
 30
0.0
 10
-12.0463
 20
-2.2201
 30
0.0
 10
-12.0463
 20
-2.2201
 30
0.0
 10
-12.0463
 20
-2.2201
 30
0.0
 10
-12.0736
 20
-2.1928
 30
0.0
 10
-12.0736
 20
-2.1928
 30
0.0
 10
-12.0736
 20
-2.1928
 30
0.0
 10
-12.0736
 20
-2.1928
 30
0.0
 10
-12.1009
 20
-2.1655
 30
0.0
 10
-12.1009
 20
-2.1655
 30
0.0
 10
-12.1009
 20
-2.1655
 30
0.0
 10
-12.1009
 20
-2.1655
 30
0.0
 10
-12.1282
 20
-2.1655
 30
0.0
 10
-12.1282
 20
-2.1655
 30
0.0
 10
-12.1282
 20
-2.1655
 30
0.0
 10
-12.1282
 20
-2.1655
 30
0.0
 10
-12.1827
 20
-2.1655
 30
0.0
 10
-12.1827
 20
-2.1655
 30
0.0
  0
SPLINE
  5
E7
330
1F
100
AcDbEntity
  8
Ebene 1
370
    13
100
AcDbSpline
210
0.0
220
0.0
230
1.0
 70
    24
 71
     3
 72
     8
 73
     4
 74
     0
 42
0.0000000001
 43
0.0000000001
 40
0.0
 40
0.0
 40
0.0
 40
0.0
 40
1.0
 40
1.0
 40
1.0
 40
1.0
 10
-12.1827
 20
-2.1655
 30
0.0
 10
-12.1827
 20
-2.1655
 30
0.0
 10
-12.7558
 20
-2.1655
 30
0.0
 10
-12.7558
 20
-2.1655
 30
0.0
  0
SPLINE
  5
E8
330
1F
100
AcDbEntity
  8
Ebene 1
370
    13
100
AcDbSpline
210
0.0
220
0.0
230
1.0
 70
     8
 71
     3
 72
    36
 73
    32
 74
     0
 42
0.0000000001
 43
0.0000000001
 40
0.0
 40
0.0
 40
0.0
 40
0.0
 40
0.125
 40
0.125
 40
0.125
 40
0.125
 40
0.25
 40
0.25
 40
0.25
 40
0.25
 40
0.375
 40
0.375
 40
0.375
 40
0.375
 40
0.5
 40
0.5
 40
0.5
 40
0.5
 40
0.625
 40
0.625
 40
0.625
 40
0.625
 40
0.75
 40
0.75
 40
0.75
 40
0.75
 40
0.875
 40
0.875
 40
0.875
 40
0.875
 40
1.0
 40
1.0
 40
1.0
 40
1.0
 10
-12.7558
 20
-2.1655
 30
0.0
 10
-12.7558
 20
-2.1655
 30
0.0
 10
-12.783
 20
-2.1655
 30
0.0
 10
-12.783
 20
-2.1655
 30
0.0
 10
-12.783
 20
-2.1655
 30
0.0
 10
-12.783
 20
-2.1655
 30
0.0
 10
-12.8103
 20
-2.1655
 30
0.0
 10
-12.8103
 20
-2.1655
 30
0.0
 10
-12.8103
 20
-2.1655
 30
0.0
 10
-12.8103
 20
-2.1655
 30
0.0
 10
-12.8376
 20
-2.1928
 30
0.0
 10
-12.8376
 20
-2.1928
 30
0.0
 10
-12.8376
 20
-2.1928
 30
0.0
 10
-12.8376
 20
-2.1928
 30
0.0
 10
-12.8649
 20
-2.2201
 30
0.0
 10
-12.8649
 20
-2.2201
 30
0.0
 10
-12.8649
 20
-2.2201
 30
0.0
 10
-12.8649
 20
-2.2201
 30
0.0
 10
-12.8921
 20
-2.2474
 30
0.0
 10
-12.8921
 20
-2.2474
 30
0.0
 10
-12.8921
 20
-2.2474
 30
0.0
 10
-12.8921
 20
-2.2474
 30
0.0
 10
-12.9194
 20
-2.2746
 30
0.0
 10
-12.9194
 20
-2.2746
 30
0.0
 10
-12.9194
 20
-2.2746
 30
0.0
 10
-12.9194
 20
-2.2746
 30
0.0
 10
-12.9194
 20
-2.3019
 30
0.0
 10
-12.9194
 20
-2.3019
 30
0.0
 10
-12.9194
 20
-2.3019
 30
0.0
 10
-12.9194
 20
-2.3019
 30
0.0
 10
-12.9194
 20
-2.3292
 30
0.0
 10
-12.9194
 20
-2.3292
 30
0.0
  0
SPLINE
  5
E9
330
1F
100
AcDbEntity
  8
Ebene 1
370
    13
100
AcDbSpline
210
0.0
220
0.0
230
1.0
 70
    24
 71
     3
 72
     8
 73
     4
 74
     0
 42
0.0000000001
 43
0.0000000001
 40
0.0
 40
0.0
 40
0.0
 40
0.0
 40
1.0
 40
1.0
 40
1.0
 40
1.0
 10
-12.9194
 20
-2.3292
 30
0.0
 10
-12.9194
 20
-2.3292
 30
0.0
 10
-12.9194
 20
-3.2841
 30
0.0
 10
-12.9194
 20
-3.2841
 30
0.0
  0
SPLINE
  5
EA
330
1F
100
AcDbEntity
  8
Ebene 1
370
    13
100
AcDbSpline
210
0.0
220
0.0
230
1.0
 70
    24
 71
     3
 72
     8
 73
     4
 74
     0
 42
0.0000000001
 43
0.0000000001
 40
0.0
 40
0.0
 40
0.0
 40
0.0
 40
1.0
 40
1.0
 40
1.0
 40
1.0
 10
-12.9194
 20
-3.2841
 30
0.0
 10
-12.9194
 20
-3.2841
 30
0.0
 10
-12.7011
 20
-3.2841
 30
0.0
 10
-12.7011
 20
-3.2841
 30
0.0
  0
SPLINE
  5
EB
330
1F
100
AcDbEntity
  8
Ebene 1
370
    13
100
AcDbSpline
210
0.0
220
0.0
230
1.0
 70
    24
 71
     3
 72
     8
 73
     4
 74
     0
 42
0.0000000001
 43
0.0000000001
 40
0.0
 40
0.0
 40
0.0
 40
0.0
 40
1.0
 40
1.0
 40
1.0
 40
1.0
 10
-12.7011
 20
-3.2841
 30
0.0
 10
-12.7011
 20
-3.2841
 30
0.0
 10
-12.7011
 20
-2.9294
 30
0.0
 10
-12.7011
 20
-2.9294
 30
0.0
  0
SPLINE
  5
EC
330
1F
100
AcDbEntity
  8
Ebene 1
370
    13
100
AcDbSpline
210
0.0
220
0.0
230
1.0
 70
    24
 71
     3
 72
     8
 73
     4
 74
     0
 42
0.0000000001
 43
0.0000000001
 40
0.0
 40
0.0
 40
0.0
 40
0.0
 40
1.0
 40
1.0
 40
1.0
 40
1.0
 10
-12.7011
 20
-2.9294
 30
0.0
 10
-12.7011
 20
-2.9294
 30
0.0
 10
-12.21
 20
-2.9294
 30
0.0
 10
-12.21
 20
-2.9294
 30
0.0
  0
SPLINE
  5
ED
330
1F
100
AcDbEntity
  8
Ebene 1
370
    13
100
AcDbSpline
210
0.0
220
0.0
230
1.0
 70
    24
 71
     3
 72
     8
 73
     4
 74
     0
 42
0.0000000001
 43
0.0000000001
 40
0.0
 40
0.0
 40
0.0
 40
0.0
 40
1.0
 40
1.0
 40
1.0
 40
1.0
 10
-12.21
 20
-2.9294
 30
0.0
 10
-12.21
 20
-2.9294
 30
0.0
 10
-12.21
 20
-3.2841
 30
0.0
 10
-12.21
 20
-3.2841
 30
0.0
  0
SPLINE
  5
EE
330
1F
100
AcDbEntity
  8
Ebene 1
370
    13
100
AcDbSpline
210
0.0
220
0.0
230
1.0
 70
    24
 71
     3
 72
     8
 73
     4
 74
     0
 42
0.0000000001
 43
0.0000000001
 40
0.0
 40
0.0
 40
0.0
 40
0.0
 40
1.0
 40
1.0
 40
1.0
 40
1.0
 10
-12.21
 20
-3.2841
 30
0.0
 10
-12.21
 20
-3.2841
 30
0.0
 10
-11.9918
 20
-3.2841
 30
0.0
 10
-11.9918
 20
-3.2841
 30
0.0
  0
SPLINE
  5
EF
330
1F
100
AcDbEntity
  8
Ebene 1
370
    13
100
AcDbSpline
210
0.0
220
0.0
230
1.0
 70
     8
 71
     3
 72
    36
 73
    32
 74
     0
 42
0.0000000001
 43
0.0000000001
 40
0.0
 40
0.0
 40
0.0
 40
0.0
 40
0.125
 40
0.125
 40
0.125
 40
0.125
 40
0.25
 40
0.25
 40
0.25
 40
0.25
 40
0.375
 40
0.375
 40
0.375
 40
0.375
 40
0.5
 40
0.5
 40
0.5
 40
0.5
 40
0.625
 40
0.625
 40
0.625
 40
0.625
 40
0.75
 40
0.75
 40
0.75
 40
0.75
 40
0.875
 40
0.875
 40
0.875
 40
0.875
 40
1.0
 40
1.0
 40
1.0
 40
1.0
 10
-12.5374
 20
-2.3838
 30
0.0
 10
-12.5374
 20
-2.3838
 30
0.0
 10
-12.592
 20
-2.3838
 30
0.0
 10
-12.592
 20
-2.3838
 30
0.0
 10
-12.592
 20
-2.3838
 30
0.0
 10
-12.592
 20
-2.3838
 30
0.0
 10
-12.6193
 20
-2.3838
 30
0.0
 10
-12.6193
 20
-2.3838
 30
0.0
 10
-12.6193
 20
-2.3838
 30
0.0
 10
-12.6193
 20
-2.3838
 30
0.0
 10
-12.6465
 20
-2.411
 30
0.0
 10
-12.6465
 20
-2.411
 30
0.0
 10
-12.6465
 20
-2.411
 30
0.0
 10
-12.6465
 20
-2.411
 30
0.0
 10
-12.6738
 20
-2.411
 30
0.0
 10
-12.6738
 20
-2.411
 30
0.0
 10
-12.6738
 20
-2.411
 30
0.0
 10
-12.6738
 20
-2.411
 30
0.0
 10
-12.6738
 20
-2.4383
 30
0.0
 10
-12.6738
 20
-2.4383
 30
0.0
 10
-12.6738
 20
-2.4383
 30
0.0
 10
-12.6738
 20
-2.4383
 30
0.0
 10
-12.7011
 20
-2.4656
 30
0.0
 10
-12.7011
 20
-2.4656
 30
0.0
 10
-12.7011
 20
-2.4656
 30
0.0
 10
-12.7011
 20
-2.4656
 30
0.0
 10
-12.7011
 20
-2.4929
 30
0.0
 10
-12.7011
 20
-2.4929
 30
0.0
 10
-12.7011
 20
-2.4929
 30
0.0
 10
-12.7011
 20
-2.4929
 30
0.0
 10
-12.7011
 20
-2.5201
 30
0.0
 10
-12.7011
 20
-2.5201
 30
0.0
  0
SPLINE
  5
F0
330
1F
100
AcDbEntity
  8
Ebene 1
370
    13
100
AcDbSpline
210
0.0
220
0.0
230
1.0
 70
    24
 71
     3
 72
     8
 73
     4
 74
     0
 42
0.0000000001
 43
0.0000000001
 40
0.0
 40
0.0
 40
0.0
 40
0.0
 40
1.0
 40
1.0
 40
1.0
 40
1.0
 10
-12.5374
 20
-2.3838
 30
0.0
 10
-12.5374
 20
-2.3838
 30
0.0
 10
-12.3738
 20
-2.3838
 30
0.0
 10
-12.3738
 20
-2.3838
 30
0.0
  0
SPLINE
  5
F1
330
1F
100
AcDbEntity
  8
Ebene 1
370
    13
100
AcDbSpline
210
0.0
220
0.0
230
1.0
 70
     8
 71
     3
 72
    36
 73
    32
 74
     0
 42
0.0000000001
 43
0.0000000001
 40
0.0
 40
0.0
 40
0.0
 40
0.0
 40
0.125
 40
0.125
 40
0.125
 40
0.125
 40
0.25
 40
0.25
 40
0.25
 40
0.25
 40
0.375
 40
0.375
 40
0.375
 40
0.375
 40
0.5
 40
0.5
 40
0.5
 40
0.5
 40
0.625
 40
0.625
 40
0.625
 40
0.625
 40
0.75
 40
0.75
 40
0.75
 40
0.75
 40
0.875
 40
0.875
 40
0.875
 40
0.875
 40
1.0
 40
1.0
 40
1.0
 40
1.0
 10
-12.21
 20
-2.5201
 30
0.0
 10
-12.21
 20
-2.5201
 30
0.0
 10
-12.21
 20
-2.4929
 30
0.0
 10
-12.21
 20
-2.4929
 30
0.0
 10
-12.21
 20
-2.4929
 30
0.0
 10
-12.21
 20
-2.4929
 30
0.0
 10
-12.21
 20
-2.4656
 30
0.0
 10
-12.21
 20
-2.4656
 30
0.0
 10
-12.21
 20
-2.4656
 30
0.0
 10
-12.21
 20
-2.4656
 30
0.0
 10
-12.2373
 20
-2.4383
 30
0.0
 10
-12.2373
 20
-2.4383
 30
0.0
 10
-12.2373
 20
-2.4383
 30
0.0
 10
-12.2373
 20
-2.4383
 30
0.0
 10
-12.2646
 20
-2.411
 30
0.0
 10
-12.2646
 20
-2.411
 30
0.0
 10
-12.2646
 20
-2.411
 30
0.0
 10
-12.2646
 20
-2.411
 30
0.0
 10
-12.2919
 20
-2.411
 30
0.0
 10
-12.2919
 20
-2.411
 30
0.0
 10
-12.2919
 20
-2.411
 30
0.0
 10
-12.2919
 20
-2.411
 30
0.0
 10
-12.3192
 20
-2.3838
 30
0.0
 10
-12.3192
 20
-2.3838
 30
0.0
 10
-12.3192
 20
-2.3838
 30
0.0
 10
-12.3192
 20
-2.3838
 30
0.0
 10
-12.3465
 20
-2.3838
 30
0.0
 10
-12.3465
 20
-2.3838
 30
0.0
 10
-12.3465
 20
-2.3838
 30
0.0
 10
-12.3465
 20
-2.3838
 30
0.0
 10
-12.3738
 20
-2.3838
 30
0.0
 10
-12.3738
 20
-2.3838
 30
0.0
  0
SPLINE
  5
F2
330
1F
100
AcDbEntity
  8
Ebene 1
370
    13
100
AcDbSpline
210
0.0
220
0.0
230
1.0
 70
    24
 71
     3
 72
     8
 73
     4
 74
     0
 42
0.0000000001
 43
0.0000000001
 40
0.0
 40
0.0
 40
0.0
 40
0.0
 40
1.0
 40
1.0
 40
1.0
 40
1.0
 10
-12.21
 20
-2.5201
 30
0.0
 10
-12.21
 20
-2.5201
 30
0.0
 10
-12.21
 20
-2.7112
 30
0.0
 10
-12.21
 20
-2.7112
 30
0.0
  0
SPLINE
  5
F3
330
1F
100
AcDbEntity
  8
Ebene 1
370
    13
100
AcDbSpline
210
0.0
220
0.0
230
1.0
 70
    24
 71
     3
 72
     8
 73
     4
 74
     0
 42
0.0000000001
 43
0.0000000001
 40
0.0
 40
0.0
 40
0.0
 40
0.0
 40
1.0
 40
1.0
 40
1.0
 40
1.0
 10
-12.21
 20
-2.7112
 30
0.0
 10
-12.21
 20
-2.7112
 30
0.0
 10
-12.7011
 20
-2.7112
 30
0.0
 10
-12.7011
 20
-2.7112
 30
0.0
  0
SPLINE
  5
F4
330
1F
100
AcDbEntity
  8
Ebene 1
370
    13
100
AcDbSpline
210
0.0
220
0.0
230
1.0
 70
    24
 71
     3
 72
     8
 73
     4
 74
     0
 42
0.0000000001
 43
0.0000000001
 40
0.0
 40
0.0
 40
0.0
 40
0.0
 40
1.0
 40
1.0
 40
1.0
 40
1.0
 10
-12.7011
 20
-2.7112
 30
0.0
 10
-12.7011
 20
-2.7112
 30
0.0
 10
-12.7011
 20
-2.5201
 30
0.0
 10
-12.7011
 20
-2.5201
 30
0.0
  0
SPLINE
  5
F5
330
1F
100
AcDbEntity
  8
Ebene 1
370
    13
100
AcDbSpline
210
0.0
220
0.0
230
1.0
 70
     8
 71
     3
 72
    36
 73
    32
 74
     0
 42
0.0000000001
 43
0.0000000001
 40
0.0
 40
0.0
 40
0.0
 40
0.0
 40
0.125
 40
0.125
 40
0.125
 40
0.125
 40
0.25
 40
0.25
 40
0.25
 40
0.25
 40
0.375
 40
0.375
 40
0.375
 40
0.375
 40
0.5
 40
0.5
 40
0.5
 40
0.5
 40
0.625
 40
0.625
 40
0.625
 40
0.625
 40
0.75
 40
0.75
 40
0.75
 40
0.75
 40
0.875
 40
0.875
 40
0.875
 40
0.875
 40
1.0
 40
1.0
 40
1.0
 40
1.0
 10
-8.308400000000001
 20
-2.3292
 30
0.0
 10
-8.308400000000001
 20
-2.3292
 30
0.0
 10
-8.335700000000001
 20
-2.2746
 30
0.0
 10
-8.335700000000001
 20
-2.2746
 30
0.0
 10
-8.335700000000001
 20
-2.2746
 30
0.0
 10
-8.335700000000001
 20
-2.2746
 30
0.0
 10
-8.335700000000001
 20
-2.2474
 30
0.0
 10
-8.335700000000001
 20
-2.2474
 30
0.0
 10
-8.335700000000001
 20
-2.2474
 30
0.0
 10
-8.335700000000001
 20
-2.2474
 30
0.0
 10
-8.363
 20
-2.1928
 30
0.0
 10
-8.363
 20
-2.1928
 30
0.0
 10
-8.363
 20
-2.1928
 30
0.0
 10
-8.363
 20
-2.1928
 30
0.0
 10
-8.3903
 20
-2.1655
 30
0.0
 10
-8.3903
 20
-2.1655
 30
0.0
 10
-8.3903
 20
-2.1655
 30
0.0
 10
-8.3903
 20
-2.1655
 30
0.0
 10
-8.444900000000001
 20
-2.1382
 30
0.0
 10
-8.444900000000001
 20
-2.1382
 30
0.0
 10
-8.444900000000001
 20
-2.1382
 30
0.0
 10
-8.444900000000001
 20
-2.1382
 30
0.0
 10
-8.472100000000001
 20
-2.1109
 30
0.0
 10
-8.472100000000001
 20
-2.1109
 30
0.0
 10
-8.472100000000001
 20
-2.1109
 30
0.0
 10
-8.472100000000001
 20
-2.1109
 30
0.0
 10
-8.5267
 20
-2.0836
 30
0.0
 10
-8.5267
 20
-2.0836
 30
0.0
 10
-8.5267
 20
-2.0836
 30
0.0
 10
-8.5267
 20
-2.0836
 30
0.0
 10
-8.581300000000001
 20
-2.0836
 30
0.0
 10
-8.581300000000001
 20
-2.0836
 30
0.0
  0
SPLINE
  5
F6
330
1F
100
AcDbEntity
  8
Ebene 1
370
    13
100
AcDbSpline
210
0.0
220
0.0
230
1.0
 70
    24
 71
     3
 72
     8
 73
     4
 74
     0
 42
0.0000000001
 43
0.0000000001
 40
0.0
 40
0.0
 40
0.0
 40
0.0
 40
1.0
 40
1.0
 40
1.0
 40
1.0
 10
-8.308400000000001
 20
-2.3292
 30
0.0
 10
-8.308400000000001
 20
-2.3292
 30
0.0
 10
-8.308400000000001
 20
-3.366
 30
0.0
 10
-8.308400000000001
 20
-3.366
 30
0.0
  0
SPLINE
  5
F7
330
1F
100
AcDbEntity
  8
Ebene 1
370
    13
100
AcDbSpline
210
0.0
220
0.0
230
1.0
 70
    24
 71
     3
 72
     8
 73
     4
 74
     0
 42
0.0000000001
 43
0.0000000001
 40
0.0
 40
0.0
 40
0.0
 40
0.0
 40
1.0
 40
1.0
 40
1.0
 40
1.0
 10
-8.6904
 20
-3.366
 30
0.0
 10
-8.6904
 20
-3.366
 30
0.0
 10
-8.308400000000001
 20
-3.366
 30
0.0
 10
-8.308400000000001
 20
-3.366
 30
0.0
  0
SPLINE
  5
F8
330
1F
100
AcDbEntity
  8
Ebene 1
370
    13
100
AcDbSpline
210
0.0
220
0.0
230
1.0
 70
    24
 71
     3
 72
     8
 73
     4
 74
     0
 42
0.0000000001
 43
0.0000000001
 40
0.0
 40
0.0
 40
0.0
 40
0.0
 40
1.0
 40
1.0
 40
1.0
 40
1.0
 10
-8.6904
 20
-2.5201
 30
0.0
 10
-8.6904
 20
-2.5201
 30
0.0
 10
-8.6904
 20
-3.366
 30
0.0
 10
-8.6904
 20
-3.366
 30
0.0
  0
SPLINE
  5
F9
330
1F
100
AcDbEntity
  8
Ebene 1
370
    13
100
AcDbSpline
210
0.0
220
0.0
230
1.0
 70
     8
 71
     3
 72
    24
 73
    20
 74
     0
 42
0.0000000001
 43
0.0000000001
 40
0.0
 40
0.0
 40
0.0
 40
0.0
 40
0.2
 40
0.2
 40
0.2
 40
0.2
 40
0.4
 40
0.4
 40
0.4
 40
0.4
 40
0.6000000000000001
 40
0.6000000000000001
 40
0.6000000000000001
 40
0.6000000000000001
 40
0.8
 40
0.8
 40
0.8
 40
0.8
 40
1.0
 40
1.0
 40
1.0
 40
1.0
 10
-8.6904
 20
-2.5201
 30
0.0
 10
-8.6904
 20
-2.5201
 30
0.0
 10
-8.6904
 20
-2.5201
 30
0.0
 10
-8.6904
 20
-2.5201
 30
0.0
 10
-8.6904
 20
-2.5201
 30
0.0
 10
-8.6904
 20
-2.5201
 30
0.0
 10
-8.6904
 20
-2.4929
 30
0.0
 10
-8.6904
 20
-2.4929
 30
0.0
 10
-8.6904
 20
-2.4929
 30
0.0
 10
-8.6904
 20
-2.4929
 30
0.0
 10
-8.717600000000001
 20
-2.4656
 30
0.0
 10
-8.717600000000001
 20
-2.4656
 30
0.0
 10
-8.717600000000001
 20
-2.4656
 30
0.0
 10
-8.717600000000001
 20
-2.4656
 30
0.0
 10
-8.744900000000001
 20
-2.4383
 30
0.0
 10
-8.744900000000001
 20
-2.4383
 30
0.0
 10
-8.744900000000001
 20
-2.4383
 30
0.0
 10
-8.744900000000001
 20
-2.4383
 30
0.0
 10
-8.7722
 20
-2.4383
 30
0.0
 10
-8.7722
 20
-2.4383
 30
0.0
  0
SPLINE
  5
FA
330
1F
100
AcDbEntity
  8
Ebene 1
370
    13
100
AcDbSpline
210
0.0
220
0.0
230
1.0
 70
    24
 71
     3
 72
     8
 73
     4
 74
     0
 42
0.0000000001
 43
0.0000000001
 40
0.0
 40
0.0
 40
0.0
 40
0.0
 40
1.0
 40
1.0
 40
1.0
 40
1.0
 10
-8.854100000000001
 20
-2.4383
 30
0.0
 10
-8.854100000000001
 20
-2.4383
 30
0.0
 10
-8.7722
 20
-2.4383
 30
0.0
 10
-8.7722
 20
-2.4383
 30
0.0
  0
SPLINE
  5
FB
330
1F
100
AcDbEntity
  8
Ebene 1
370
    13
100
AcDbSpline
210
0.0
220
0.0
230
1.0
 70
     8
 71
     3
 72
    28
 73
    24
 74
     0
 42
0.0000000001
 43
0.0000000001
 40
0.0
 40
0.0
 40
0.0
 40
0.0
 40
0.1666666666666667
 40
0.1666666666666667
 40
0.1666666666666667
 40
0.1666666666666667
 40
0.3333333333333333
 40
0.3333333333333333
 40
0.3333333333333333
 40
0.3333333333333333
 40
0.5
 40
0.5
 40
0.5
 40
0.5
 40
0.6666666666666666
 40
0.6666666666666666
 40
0.6666666666666666
 40
0.6666666666666666
 40
0.8333333333333333
 40
0.8333333333333333
 40
0.8333333333333333
 40
0.8333333333333333
 40
1.0
 40
1.0
 40
1.0
 40
1.0
 10
-8.854100000000001
 20
-2.4383
 30
0.0
 10
-8.854100000000001
 20
-2.4383
 30
0.0
 10
-8.881400000000001
 20
-2.4383
 30
0.0
 10
-8.881400000000001
 20
-2.4383
 30
0.0
 10
-8.881400000000001
 20
-2.4383
 30
0.0
 10
-8.881400000000001
 20
-2.4383
 30
0.0
 10
-8.9087
 20
-2.4656
 30
0.0
 10
-8.9087
 20
-2.4656
 30
0.0
 10
-8.9087
 20
-2.4656
 30
0.0
 10
-8.9087
 20
-2.4656
 30
0.0
 10
-8.936
 20
-2.4656
 30
0.0
 10
-8.936
 20
-2.4656
 30
0.0
 10
-8.936
 20
-2.4656
 30
0.0
 10
-8.936
 20
-2.4656
 30
0.0
 10
-8.936
 20
-2.4929
 30
0.0
 10
-8.936
 20
-2.4929
 30
0.0
 10
-8.936
 20
-2.4929
 30
0.0
 10
-8.936
 20
-2.4929
 30
0.0
 10
-8.936
 20
-2.5201
 30
0.0
 10
-8.936
 20
-2.5201
 30
0.0
 10
-8.936
 20
-2.5201
 30
0.0
 10
-8.936
 20
-2.5201
 30
0.0
 10
-8.963200000000001
 20
-2.5201
 30
0.0
 10
-8.963200000000001
 20
-2.5201
 30
0.0
  0
SPLINE
  5
FC
330
1F
100
AcDbEntity
  8
Ebene 1
370
    13
100
AcDbSpline
210
0.0
220
0.0
230
1.0
 70
    24
 71
     3
 72
     8
 73
     4
 74
     0
 42
0.0000000001
 43
0.0000000001
 40
0.0
 40
0.0
 40
0.0
 40
0.0
 40
1.0
 40
1.0
 40
1.0
 40
1.0
 10
-8.963200000000001
 20
-2.5201
 30
0.0
 10
-8.963200000000001
 20
-2.5201
 30
0.0
 10
-8.963200000000001
 20
-3.366
 30
0.0
 10
-8.963200000000001
 20
-3.366
 30
0.0
  0
SPLINE
  5
FD
330
1F
100
AcDbEntity
  8
Ebene 1
370
    13
100
AcDbSpline
210
0.0
220
0.0
230
1.0
 70
    24
 71
     3
 72
     8
 73
     4
 74
     0
 42
0.0000000001
 43
0.0000000001
 40
0.0
 40
0.0
 40
0.0
 40
0.0
 40
1.0
 40
1.0
 40
1.0
 40
1.0
 10
-9.318
 20
-3.366
 30
0.0
 10
-9.318
 20
-3.366
 30
0.0
 10
-8.963200000000001
 20
-3.366
 30
0.0
 10
-8.963200000000001
 20
-3.366
 30
0.0
  0
SPLINE
  5
FE
330
1F
100
AcDbEntity
  8
Ebene 1
370
    13
100
AcDbSpline
210
0.0
220
0.0
230
1.0
 70
    24
 71
     3
 72
     8
 73
     4
 74
     0
 42
0.0000000001
 43
0.0000000001
 40
0.0
 40
0.0
 40
0.0
 40
0.0
 40
1.0
 40
1.0
 40
1.0
 40
1.0
 10
-9.318
 20
-2.5201
 30
0.0
 10
-9.318
 20
-2.5201
 30
0.0
 10
-9.318
 20
-3.366
 30
0.0
 10
-9.318
 20
-3.366
 30
0.0
  0
SPLINE
  5
FF
330
1F
100
AcDbEntity
  8
Ebene 1
370
    13
100
AcDbSpline
210
0.0
220
0.0
230
1.0
 70
     8
 71
     3
 72
    24
 73
    20
 74
     0
 42
0.0000000001
 43
0.0000000001
 40
0.0
 40
0.0
 40
0.0
 40
0.0
 40
0.2
 40
0.2
 40
0.2
 40
0.2
 40
0.4
 40
0.4
 40
0.4
 40
0.4
 40
0.6000000000000001
 40
0.6000000000000001
 40
0.6000000000000001
 40
0.6000000000000001
 40
0.8
 40
0.8
 40
0.8
 40
0.8
 40
1.0
 40
1.0
 40
1.0
 40
1.0
 10
-9.318
 20
-2.5201
 30
0.0
 10
-9.318
 20
-2.5201
 30
0.0
 10
-9.318
 20
-2.5201
 30
0.0
 10
-9.318
 20
-2.5201
 30
0.0
 10
-9.318
 20
-2.5201
 30
0.0
 10
-9.318
 20
-2.5201
 30
0.0
 10
-9.318
 20
-2.4929
 30
0.0
 10
-9.318
 20
-2.4929
 30
0.0
 10
-9.318
 20
-2.4929
 30
0.0
 10
-9.318
 20
-2.4929
 30
0.0
 10
-9.3452
 20
-2.4656
 30
0.0
 10
-9.3452
 20
-2.4656
 30
0.0
 10
-9.3452
 20
-2.4656
 30
0.0
 10
-9.3452
 20
-2.4656
 30
0.0
 10
-9.372500000000001
 20
-2.4383
 30
0.0
 10
-9.372500000000001
 20
-2.4383
 30
0.0
 10
-9.372500000000001
 20
-2.4383
 30
0.0
 10
-9.372500000000001
 20
-2.4383
 30
0.0
 10
-9.399800000000001
 20
-2.4383
 30
0.0
 10
-9.399800000000001
 20
-2.4383
 30
0.0
  0
SPLINE
  5
100
330
1F
100
AcDbEntity
  8
Ebene 1
370
    13
100
AcDbSpline
210
0.0
220
0.0
230
1.0
 70
    24
 71
     3
 72
     8
 73
     4
 74
     0
 42
0.0000000001
 43
0.0000000001
 40
0.0
 40
0.0
 40
0.0
 40
0.0
 40
1.0
 40
1.0
 40
1.0
 40
1.0
 10
-9.4816
 20
-2.4383
 30
0.0
 10
-9.4816
 20
-2.4383
 30
0.0
 10
-9.399800000000001
 20
-2.4383
 30
0.0
 10
-9.399800000000001
 20
-2.4383
 30
0.0
  0
SPLINE
  5
101
330
1F
100
AcDbEntity
  8
Ebene 1
370
    13
100
AcDbSpline
210
0.0
220
0.0
230
1.0
 70
     8
 71
     3
 72
    28
 73
    24
 74
     0
 42
0.0000000001
 43
0.0000000001
 40
0.0
 40
0.0
 40
0.0
 40
0.0
 40
0.1666666666666667
 40
0.1666666666666667
 40
0.1666666666666667
 40
0.1666666666666667
 40
0.3333333333333333
 40
0.3333333333333333
 40
0.3333333333333333
 40
0.3333333333333333
 40
0.5
 40
0.5
 40
0.5
 40
0.5
 40
0.6666666666666666
 40
0.6666666666666666
 40
0.6666666666666666
 40
0.6666666666666666
 40
0.8333333333333333
 40
0.8333333333333333
 40
0.8333333333333333
 40
0.8333333333333333
 40
1.0
 40
1.0
 40
1.0
 40
1.0
 10
-9.4816
 20
-2.4383
 30
0.0
 10
-9.4816
 20
-2.4383
 30
0.0
 10
-9.508900000000001
 20
-2.4383
 30
0.0
 10
-9.508900000000001
 20
-2.4383
 30
0.0
 10
-9.508900000000001
 20
-2.4383
 30
0.0
 10
-9.508900000000001
 20
-2.4383
 30
0.0
 10
-9.536200000000001
 20
-2.4383
 30
0.0
 10
-9.536200000000001
 20
-2.4383
 30
0.0
 10
-9.536200000000001
 20
-2.4383
 30
0.0
 10
-9.536200000000001
 20
-2.4383
 30
0.0
 10
-9.536200000000001
 20
-2.4656
 30
0.0
 10
-9.536200000000001
 20
-2.4656
 30
0.0
 10
-9.536200000000001
 20
-2.4656
 30
0.0
 10
-9.536200000000001
 20
-2.4656
 30
0.0
 10
-9.563500000000001
 20
-2.4656
 30
0.0
 10
-9.563500000000001
 20
-2.4656
 30
0.0
 10
-9.563500000000001
 20
-2.4656
 30
0.0
 10
-9.563500000000001
 20
-2.4656
 30
0.0
 10
-9.563500000000001
 20
-2.4929
 30
0.0
 10
-9.563500000000001
 20
-2.4929
 30
0.0
 10
-9.563500000000001
 20
-2.4929
 30
0.0
 10
-9.563500000000001
 20
-2.4929
 30
0.0
 10
-9.5907
 20
-2.5201
 30
0.0
 10
-9.5907
 20
-2.5201
 30
0.0
  0
SPLINE
  5
102
330
1F
100
AcDbEntity
  8
Ebene 1
370
    13
100
AcDbSpline
210
0.0
220
0.0
230
1.0
 70
    24
 71
     3
 72
     8
 73
     4
 74
     0
 42
0.0000000001
 43
0.0000000001
 40
0.0
 40
0.0
 40
0.0
 40
0.0
 40
1.0
 40
1.0
 40
1.0
 40
1.0
 10
-9.5907
 20
-2.5201
 30
0.0
 10
-9.5907
 20
-2.5201
 30
0.0
 10
-9.5907
 20
-3.366
 30
0.0
 10
-9.5907
 20
-3.366
 30
0.0
  0
SPLINE
  5
103
330
1F
100
AcDbEntity
  8
Ebene 1
370
    13
100
AcDbSpline
210
0.0
220
0.0
230
1.0
 70
    24
 71
     3
 72
     8
 73
     4
 74
     0
 42
0.0000000001
 43
0.0000000001
 40
0.0
 40
0.0
 40
0.0
 40
0.0
 40
1.0
 40
1.0
 40
1.0
 40
1.0
 10
-9.945400000000001
 20
-3.366
 30
0.0
 10
-9.945400000000001
 20
-3.366
 30
0.0
 10
-9.5907
 20
-3.366
 30
0.0
 10
-9.5907
 20
-3.366
 30
0.0
  0
SPLINE
  5
104
330
1F
100
AcDbEntity
  8
Ebene 1
370
    13
100
AcDbSpline
210
0.0
220
0.0
230
1.0
 70
    24
 71
     3
 72
     8
 73
     4
 74
     0
 42
0.0000000001
 43
0.0000000001
 40
0.0
 40
0.0
 40
0.0
 40
0.0
 40
1.0
 40
1.0
 40
1.0
 40
1.0
 10
-9.945400000000001
 20
-2.3292
 30
0.0
 10
-9.945400000000001
 20
-2.3292
 30
0.0
 10
-9.945400000000001
 20
-3.366
 30
0.0
 10
-9.945400000000001
 20
-3.366
 30
0.0
  0
SPLINE
  5
105
330
1F
100
AcDbEntity
  8
Ebene 1
370
    13
100
AcDbSpline
210
0.0
220
0.0
230
1.0
 70
     8
 71
     3
 72
    36
 73
    32
 74
     0
 42
0.0000000001
 43
0.0000000001
 40
0.0
 40
0.0
 40
0.0
 40
0.0
 40
0.125
 40
0.125
 40
0.125
 40
0.125
 40
0.25
 40
0.25
 40
0.25
 40
0.25
 40
0.375
 40
0.375
 40
0.375
 40
0.375
 40
0.5
 40
0.5
 40
0.5
 40
0.5
 40
0.625
 40
0.625
 40
0.625
 40
0.625
 40
0.75
 40
0.75
 40
0.75
 40
0.75
 40
0.875
 40
0.875
 40
0.875
 40
0.875
 40
1.0
 40
1.0
 40
1.0
 40
1.0
 10
-9.699900000000001
 20
-2.0836
 30
0.0
 10
-9.699900000000001
 20
-2.0836
 30
0.0
 10
-9.7272
 20
-2.0836
 30
0.0
 10
-9.7272
 20
-2.0836
 30
0.0
 10
-9.7272
 20
-2.0836
 30
0.0
 10
-9.7272
 20
-2.0836
 30
0.0
 10
-9.781800000000001
 20
-2.1109
 30
0.0
 10
-9.781800000000001
 20
-2.1109
 30
0.0
 10
-9.781800000000001
 20
-2.1109
 30
0.0
 10
-9.781800000000001
 20
-2.1109
 30
0.0
 10
-9.8363
 20
-2.1382
 30
0.0
 10
-9.8363
 20
-2.1382
 30
0.0
 10
-9.8363
 20
-2.1382
 30
0.0
 10
-9.8363
 20
-2.1382
 30
0.0
 10
-9.8636
 20
-2.1655
 30
0.0
 10
-9.8636
 20
-2.1655
 30
0.0
 10
-9.8636
 20
-2.1655
 30
0.0
 10
-9.8636
 20
-2.1655
 30
0.0
 10
-9.8909
 20
-2.1928
 30
0.0
 10
-9.8909
 20
-2.1928
 30
0.0
 10
-9.8909
 20
-2.1928
 30
0.0
 10
-9.8909
 20
-2.1928
 30
0.0
 10
-9.918200000000001
 20
-2.2474
 30
0.0
 10
-9.918200000000001
 20
-2.2474
 30
0.0
 10
-9.918200000000001
 20
-2.2474
 30
0.0
 10
-9.918200000000001
 20
-2.2474
 30
0.0
 10
-9.945400000000001
 20
-2.2746
 30
0.0
 10
-9.945400000000001
 20
-2.2746
 30
0.0
 10
-9.945400000000001
 20
-2.2746
 30
0.0
 10
-9.945400000000001
 20
-2.2746
 30
0.0
 10
-9.945400000000001
 20
-2.3292
 30
0.0
 10
-9.945400000000001
 20
-2.3292
 30
0.0
  0
SPLINE
  5
106
330
1F
100
AcDbEntity
  8
Ebene 1
370
    13
100
AcDbSpline
210
0.0
220
0.0
230
1.0
 70
    24
 71
     3
 72
     8
 73
     4
 74
     0
 42
0.0000000001
 43
0.0000000001
 40
0.0
 40
0.0
 40
0.0
 40
0.0
 40
1.0
 40
1.0
 40
1.0
 40
1.0
 10
-9.699900000000001
 20
-2.0836
 30
0.0
 10
-9.699900000000001
 20
-2.0836
 30
0.0
 10
-9.318
 20
-2.0836
 30
0.0
 10
-9.318
 20
-2.0836
 30
0.0
  0
SPLINE
  5
107
330
1F
100
AcDbEntity
  8
Ebene 1
370
    13
100
AcDbSpline
210
0.0
220
0.0
230
1.0
 70
     8
 71
     3
 72
    36
 73
    32
 74
     0
 42
0.0000000001
 43
0.0000000001
 40
0.0
 40
0.0
 40
0.0
 40
0.0
 40
0.125
 40
0.125
 40
0.125
 40
0.125
 40
0.25
 40
0.25
 40
0.25
 40
0.25
 40
0.375
 40
0.375
 40
0.375
 40
0.375
 40
0.5
 40
0.5
 40
0.5
 40
0.5
 40
0.625
 40
0.625
 40
0.625
 40
0.625
 40
0.75
 40
0.75
 40
0.75
 40
0.75
 40
0.875
 40
0.875
 40
0.875
 40
0.875
 40
1.0
 40
1.0
 40
1.0
 40
1.0
 10
-9.126900000000001
 20
-2.1655
 30
0.0
 10
-9.126900000000001
 20
-2.1655
 30
0.0
 10
-9.154200000000001
 20
-2.1382
 30
0.0
 10
-9.154200000000001
 20
-2.1382
 30
0.0
 10
-9.154200000000001
 20
-2.1382
 30
0.0
 10
-9.154200000000001
 20
-2.1382
 30
0.0
 10
-9.154200000000001
 20
-2.1109
 30
0.0
 10
-9.154200000000001
 20
-2.1109
 30
0.0
 10
-9.154200000000001
 20
-2.1109
 30
0.0
 10
-9.154200000000001
 20
-2.1109
 30
0.0
 10
-9.1815
 20
-2.1109
 30
0.0
 10
-9.1815
 20
-2.1109
 30
0.0
 10
-9.1815
 20
-2.1109
 30
0.0
 10
-9.1815
 20
-2.1109
 30
0.0
 10
-9.2088
 20
-2.1109
 30
0.0
 10
-9.2088
 20
-2.1109
 30
0.0
 10
-9.2088
 20
-2.1109
 30
0.0
 10
-9.2088
 20
-2.1109
 30
0.0
 10
-9.2361
 20
-2.0836
 30
0.0
 10
-9.2361
 20
-2.0836
 30
0.0
 10
-9.2361
 20
-2.0836
 30
0.0
 10
-9.2361
 20
-2.0836
 30
0.0
 10
-9.263400000000001
 20
-2.0836
 30
0.0
 10
-9.263400000000001
 20
-2.0836
 30
0.0
 10
-9.263400000000001
 20
-2.0836
 30
0.0
 10
-9.263400000000001
 20
-2.0836
 30
0.0
 10
-9.290700000000001
 20
-2.0836
 30
0.0
 10
-9.290700000000001
 20
-2.0836
 30
0.0
 10
-9.290700000000001
 20
-2.0836
 30
0.0
 10
-9.290700000000001
 20
-2.0836
 30
0.0
 10
-9.318
 20
-2.0836
 30
0.0
 10
-9.318
 20
-2.0836
 30
0.0
  0
SPLINE
  5
108
330
1F
100
AcDbEntity
  8
Ebene 1
370
    13
100
AcDbSpline
210
0.0
220
0.0
230
1.0
 70
     8
 71
     3
 72
    32
 73
    28
 74
     0
 42
0.0000000001
 43
0.0000000001
 40
0.0
 40
0.0
 40
0.0
 40
0.0
 40
0.1428571428571429
 40
0.1428571428571429
 40
0.1428571428571429
 40
0.1428571428571429
 40
0.2857142857142857
 40
0.2857142857142857
 40
0.2857142857142857
 40
0.2857142857142857
 40
0.4285714285714286
 40
0.4285714285714286
 40
0.4285714285714286
 40
0.4285714285714286
 40
0.5714285714285714
 40
0.5714285714285714
 40
0.5714285714285714
 40
0.5714285714285714
 40
0.7142857142857142
 40
0.7142857142857142
 40
0.7142857142857142
 40
0.7142857142857142
 40
0.857142857142857
 40
0.857142857142857
 40
0.857142857142857
 40
0.857142857142857
 40
1.0
 40
1.0
 40
1.0
 40
1.0
 10
-8.963200000000001
 20
-2.0836
 30
0.0
 10
-8.963200000000001
 20
-2.0836
 30
0.0
 10
-8.990500000000001
 20
-2.0836
 30
0.0
 10
-8.990500000000001
 20
-2.0836
 30
0.0
 10
-8.990500000000001
 20
-2.0836
 30
0.0
 10
-8.990500000000001
 20
-2.0836
 30
0.0
 10
-9.017800000000001
 20
-2.0836
 30
0.0
 10
-9.017800000000001
 20
-2.0836
 30
0.0
 10
-9.017800000000001
 20
-2.0836
 30
0.0
 10
-9.017800000000001
 20
-2.0836
 30
0.0
 10
-9.0451
 20
-2.1109
 30
0.0
 10
-9.0451
 20
-2.1109
 30
0.0
 10
-9.0451
 20
-2.1109
 30
0.0
 10
-9.0451
 20
-2.1109
 30
0.0
 10
-9.0724
 20
-2.1109
 30
0.0
 10
-9.0724
 20
-2.1109
 30
0.0
 10
-9.0724
 20
-2.1109
 30
0.0
 10
-9.0724
 20
-2.1109
 30
0.0
 10
-9.099600000000001
 20
-2.1109
 30
0.0
 10
-9.099600000000001
 20
-2.1109
 30
0.0
 10
-9.099600000000001
 20
-2.1109
 30
0.0
 10
-9.099600000000001
 20
-2.1109
 30
0.0
 10
-9.099600000000001
 20
-2.1382
 30
0.0
 10
-9.099600000000001
 20
-2.1382
 30
0.0
 10
-9.099600000000001
 20
-2.1382
 30
0.0
 10
-9.099600000000001
 20
-2.1382
 30
0.0
 10
-9.126900000000001
 20
-2.1655
 30
0.0
 10
-9.126900000000001
 20
-2.1655
 30
0.0
  0
SPLINE
  5
109
330
1F
100
AcDbEntity
  8
Ebene 1
370
    13
100
AcDbSpline
210
0.0
220
0.0
230
1.0
 70
    24
 71
     3
 72
     8
 73
     4
 74
     0
 42
0.0000000001
 43
0.0000000001
 40
0.0
 40
0.0
 40
0.0
 40
0.0
 40
1.0
 40
1.0
 40
1.0
 40
1.0
 10
-8.963200000000001
 20
-2.0836
 30
0.0
 10
-8.963200000000001
 20
-2.0836
 30
0.0
 10
-8.581300000000001
 20
-2.0836
 30
0.0
 10
-8.581300000000001
 20
-2.0836
 30
0.0
  0
SPLINE
  5
10A
330
1F
100
AcDbEntity
  8
Ebene 1
370
    13
100
AcDbSpline
210
0.0
220
0.0
230
1.0
 70
    24
 71
     3
 72
     8
 73
     4
 74
     0
 42
0.0000000001
 43
0.0000000001
 40
0.0
 40
0.0
 40
0.0
 40
0.0
 40
1.0
 40
1.0
 40
1.0
 40
1.0
 10
-11.7462
 20
-2.0836
 30
0.0
 10
-11.7462
 20
-2.0836
 30
0.0
 10
-11.7462
 20
-3.366
 30
0.0
 10
-11.7462
 20
-3.366
 30
0.0
  0
SPLINE
  5
10B
330
1F
100
AcDbEntity
  8
Ebene 1
370
    13
100
AcDbSpline
210
0.0
220
0.0
230
1.0
 70
    24
 71
     3
 72
     8
 73
     4
 74
     0
 42
0.0000000001
 43
0.0000000001
 40
0.0
 40
0.0
 40
0.0
 40
0.0
 40
1.0
 40
1.0
 40
1.0
 40
1.0
 10
-11.7462
 20
-2.0836
 30
0.0
 10
-11.7462
 20
-2.0836
 30
0.0
 10
-11.3915
 20
-2.0836
 30
0.0
 10
-11.3915
 20
-2.0836
 30
0.0
  0
SPLINE
  5
10C
330
1F
100
AcDbEntity
  8
Ebene 1
370
    13
100
AcDbSpline
210
0.0
220
0.0
230
1.0
 70
    24
 71
     3
 72
     8
 73
     4
 74
     0
 42
0.0000000001
 43
0.0000000001
 40
0.0
 40
0.0
 40
0.0
 40
0.0
 40
1.0
 40
1.0
 40
1.0
 40
1.0
 10
-11.3915
 20
-2.0836
 30
0.0
 10
-11.3915
 20
-2.0836
 30
0.0
 10
-11.3915
 20
-3.0113
 30
0.0
 10
-11.3915
 20
-3.0113
 30
0.0
  0
SPLINE
  5
10D
330
1F
100
AcDbEntity
  8
Ebene 1
370
    13
100
AcDbSpline
210
0.0
220
0.0
230
1.0
 70
    24
 71
     3
 72
     8
 73
     4
 74
     0
 42
0.0000000001
 43
0.0000000001
 40
0.0
 40
0.0
 40
0.0
 40
0.0
 40
1.0
 40
1.0
 40
1.0
 40
1.0
 10
-11.3915
 20
-3.0113
 30
0.0
 10
-11.3915
 20
-3.0113
 30
0.0
 10
-11.0096
 20
-3.0113
 30
0.0
 10
-11.0096
 20
-3.0113
 30
0.0
  0
SPLINE
  5
10E
330
1F
100
AcDbEntity
  8
Ebene 1
370
    13
100
AcDbSpline
210
0.0
220
0.0
230
1.0
 70
    24
 71
     3
 72
     8
 73
     4
 74
     0
 42
0.0000000001
 43
0.0000000001
 40
0.0
 40
0.0
 40
0.0
 40
0.0
 40
1.0
 40
1.0
 40
1.0
 40
1.0
 10
-11.0096
 20
-3.0113
 30
0.0
 10
-11.0096
 20
-3.0113
 30
0.0
 10
-11.0096
 20
-3.366
 30
0.0
 10
-11.0096
 20
-3.366
 30
0.0
  0
SPLINE
  5
10F
330
1F
100
AcDbEntity
  8
Ebene 1
370
    13
100
AcDbSpline
210
0.0
220
0.0
230
1.0
 70
    24
 71
     3
 72
     8
 73
     4
 74
     0
 42
0.0000000001
 43
0.0000000001
 40
0.0
 40
0.0
 40
0.0
 40
0.0
 40
1.0
 40
1.0
 40
1.0
 40
1.0
 10
-11.7462
 20
-3.366
 30
0.0
 10
-11.7462
 20
-3.366
 30
0.0
 10
-11.0096
 20
-3.366
 30
0.0
 10
-11.0096
 20
-3.366
 30
0.0
  0
SPLINE
  5
110
330
1F
100
AcDbEntity
  8
Ebene 1
370
    13
100
AcDbSpline
210
0.0
220
0.0
230
1.0
 70
    24
 71
     3
 72
     8
 73
     4
 74
     0
 42
0.0000000001
 43
0.0000000001
 40
0.0
 40
0.0
 40
0.0
 40
0.0
 40
1.0
 40
1.0
 40
1.0
 40
1.0
 10
-15.9752
 20
-2.9567
 30
0.0
 10
-15.9752
 20
-2.9567
 30
0.0
 10
-16.2208
 20
-2.2746
 30
0.0
 10
-16.2208
 20
-2.2746
 30
0.0
  0
SPLINE
  5
111
330
1F
100
AcDbEntity
  8
Ebene 1
370
    13
100
AcDbSpline
210
0.0
220
0.0
230
1.0
 70
    24
 71
     3
 72
     8
 73
     4
 74
     0
 42
0.0000000001
 43
0.0000000001
 40
0.0
 40
0.0
 40
0.0
 40
0.0
 40
1.0
 40
1.0
 40
1.0
 40
1.0
 10
-15.5387
 20
-2.029
 30
0.0
 10
-15.5387
 20
-2.029
 30
0.0
 10
-16.2208
 20
-2.2746
 30
0.0
 10
-16.2208
 20
-2.2746
 30
0.0
  0
SPLINE
  5
112
330
1F
100
AcDbEntity
  8
Ebene 1
370
    13
100
AcDbSpline
210
0.0
220
0.0
230
1.0
 70
    24
 71
     3
 72
     8
 73
     4
 74
     0
 42
0.0000000001
 43
0.0000000001
 40
0.0
 40
0.0
 40
0.0
 40
0.0
 40
1.0
 40
1.0
 40
1.0
 40
1.0
 10
-15.5387
 20
-2.029
 30
0.0
 10
-15.5387
 20
-2.029
 30
0.0
 10
-14.8839
 20
-1.7835
 30
0.0
 10
-14.8839
 20
-1.7835
 30
0.0
  0
SPLINE
  5
113
330
1F
100
AcDbEntity
  8
Ebene 1
370
    13
100
AcDbSpline
210
0.0
220
0.0
230
1.0
 70
    24
 71
     3
 72
     8
 73
     4
 74
     0
 42
0.0000000001
 43
0.0000000001
 40
0.0
 40
0.0
 40
0.0
 40
0.0
 40
1.0
 40
1.0
 40
1.0
 40
1.0
 10
-14.6383
 20
-2.4656
 30
0.0
 10
-14.6383
 20
-2.4656
 30
0.0
 10
-14.8839
 20
-1.7835
 30
0.0
 10
-14.8839
 20
-1.7835
 30
0.0
  0
SPLINE
  5
114
330
1F
100
AcDbEntity
  8
Ebene 1
370
    13
100
AcDbSpline
210
0.0
220
0.0
230
1.0
 70
    24
 71
     3
 72
     8
 73
     4
 74
     0
 42
0.0000000001
 43
0.0000000001
 40
0.0
 40
0.0
 40
0.0
 40
0.0
 40
1.0
 40
1.0
 40
1.0
 40
1.0
 10
-14.6383
 20
-2.4656
 30
0.0
 10
-14.6383
 20
-2.4656
 30
0.0
 10
-14.3927
 20
-3.1477
 30
0.0
 10
-14.3927
 20
-3.1477
 30
0.0
  0
SPLINE
  5
115
330
1F
100
AcDbEntity
  8
Ebene 1
370
    13
100
AcDbSpline
210
0.0
220
0.0
230
1.0
 70
    24
 71
     3
 72
     8
 73
     4
 74
     0
 42
0.0000000001
 43
0.0000000001
 40
0.0
 40
0.0
 40
0.0
 40
0.0
 40
1.0
 40
1.0
 40
1.0
 40
1.0
 10
-15.0476
 20
-3.3932
 30
0.0
 10
-15.0476
 20
-3.3932
 30
0.0
 10
-14.3927
 20
-3.1477
 30
0.0
 10
-14.3927
 20
-3.1477
 30
0.0
  0
SPLINE
  5
116
330
1F
100
AcDbEntity
  8
Ebene 1
370
    13
100
AcDbSpline
210
0.0
220
0.0
230
1.0
 70
    24
 71
     3
 72
     8
 73
     4
 74
     0
 42
0.0000000001
 43
0.0000000001
 40
0.0
 40
0.0
 40
0.0
 40
0.0
 40
1.0
 40
1.0
 40
1.0
 40
1.0
 10
-15.0476
 20
-3.3932
 30
0.0
 10
-15.0476
 20
-3.3932
 30
0.0
 10
-15.7297
 20
-3.6388
 30
0.0
 10
-15.7297
 20
-3.6388
 30
0.0
  0
SPLINE
  5
117
330
1F
100
AcDbEntity
  8
Ebene 1
370
    13
100
AcDbSpline
210
0.0
220
0.0
230
1.0
 70
    24
 71
     3
 72
     8
 73
     4
 74
     0
 42
0.0000000001
 43
0.0000000001
 40
0.0
 40
0.0
 40
0.0
 40
0.0
 40
1.0
 40
1.0
 40
1.0
 40
1.0
 10
-15.9752
 20
-2.9567
 30
0.0
 10
-15.9752
 20
-2.9567
 30
0.0
 10
-15.7297
 20
-3.6388
 30
0.0
 10
-15.7297
 20
-3.6388
 30
0.0
  0
SPLINE
  5
118
330
1F
100
AcDbEntity
  8
Ebene 1
370
    35
100
AcDbSpline
210
0.0
220
0.0
230
1.0
 70
    24
 71
     3
 72
     8
 73
     4
 74
     0
 42
0.0000000001
 43
0.0000000001
 40
0.0
 40
0.0
 40
0.0
 40
0.0
 40
1.0
 40
1.0
 40
1.0
 40
1.0
 10
-1.1327
 20
36.2778
 30
0.0
 10
-1.1327
 20
36.2778
 30
0.0
 10
-1.1327
 20
-5.8761
 30
0.0
 10
-1.1327
 20
-5.8761
 30
0.0
  0
SPLINE
  5
119
330
1F
100
AcDbEntity
  8
Ebene 1
370
    35
100
AcDbSpline
210
0.0
220
0.0
230
1.0
 70
     8
 71
     3
 72
    36
 73
    32
 74
     0
 42
0.0000000001
 43
0.0000000001
 40
0.0
 40
0.0
 40
0.0
 40
0.0
 40
0.125
 40
0.125
 40
0.125
 40
0.125
 40
0.25
 40
0.25
 40
0.25
 40
0.25
 40
0.375
 40
0.375
 40
0.375
 40
0.375
 40
0.5
 40
0.5
 40
0.5
 40
0.5
 40
0.625
 40
0.625
 40
0.625
 40
0.625
 40
0.75
 40
0.75
 40
0.75
 40
0.75
 40
0.875
 40
0.875
 40
0.875
 40
0.875
 40
1.0
 40
1.0
 40
1.0
 40
1.0
 10
-1.1327
 20
36.2778
 30
0.0
 10
-1.1327
 20
36.2778
 30
0.0
 10
-1.16
 20
36.496
 30
0.0
 10
-1.16
 20
36.496
 30
0.0
 10
-1.16
 20
36.496
 30
0.0
 10
-1.16
 20
36.496
 30
0.0
 10
-1.2418
 20
36.7143
 30
0.0
 10
-1.2418
 20
36.7143
 30
0.0
 10
-1.2418
 20
36.7143
 30
0.0
 10
-1.2418
 20
36.7143
 30
0.0
 10
-1.351
 20
36.9053
 30
0.0
 10
-1.351
 20
36.9053
 30
0.0
 10
-1.351
 20
36.9053
 30
0.0
 10
-1.351
 20
36.9053
 30
0.0
 10
-1.4874
 20
37.0963
 30
0.0
 10
-1.4874
 20
37.0963
 30
0.0
 10
-1.4874
 20
37.0963
 30
0.0
 10
-1.4874
 20
37.0963
 30
0.0
 10
-1.6511
 20
37.2327
 30
0.0
 10
-1.6511
 20
37.2327
 30
0.0
 10
-1.6511
 20
37.2327
 30
0.0
 10
-1.6511
 20
37.2327
 30
0.0
 10
-1.8694
 20
37.3418
 30
0.0
 10
-1.8694
 20
37.3418
 30
0.0
 10
-1.8694
 20
37.3418
 30
0.0
 10
-1.8694
 20
37.3418
 30
0.0
 10
-2.0876
 20
37.3964
 30
0.0
 10
-2.0876
 20
37.3964
 30
0.0
 10
-2.0876
 20
37.3964
 30
0.0
 10
-2.0876
 20
37.3964
 30
0.0
 10
-2.306
 20
37.4237
 30
0.0
 10
-2.306
 20
37.4237
 30
0.0
  0
SPLINE
  5
11A
330
1F
100
AcDbEntity
  8
Ebene 1
370
     0
100
AcDbSpline
210
0.0
220
0.0
230
1.0
 70
    24
 71
     3
 72
     8
 73
     4
 74
     0
 42
0.0000000001
 43
0.0000000001
 40
0.0
 40
0.0
 40
0.0
 40
0.0
 40
1.0
 40
1.0
 40
1.0
 40
1.0
 10
-44.45970000000001
 20
37.4237
 30
0.0
 10
-44.45970000000001
 20
37.4237
 30
0.0
 10
-2.306
 20
37.4237
 30
0.0
 10
-2.306
 20
37.4237
 30
0.0
  0
SPLINE
  5
11B
330
1F
100
AcDbEntity
  8
Ebene 1
370
    35
100
AcDbSpline
210
0.0
220
0.0
230
1.0
 70
     8
 71
     3
 72
    36
 73
    32
 74
     0
 42
0.0000000001
 43
0.0000000001
 40
0.0
 40
0.0
 40
0.0
 40
0.0
 40
0.125
 40
0.125
 40
0.125
 40
0.125
 40
0.25
 40
0.25
 40
0.25
 40
0.25
 40
0.375
 40
0.375
 40
0.375
 40
0.375
 40
0.5
 40
0.5
 40
0.5
 40
0.5
 40
0.625
 40
0.625
 40
0.625
 40
0.625
 40
0.75
 40
0.75
 40
0.75
 40
0.75
 40
0.875
 40
0.875
 40
0.875
 40
0.875
 40
1.0
 40
1.0
 40
1.0
 40
1.0
 10
-44.45970000000001
 20
37.4237
 30
0.0
 10
-44.45970000000001
 20
37.4237
 30
0.0
 10
-44.6781
 20
37.3964
 30
0.0
 10
-44.6781
 20
37.3964
 30
0.0
 10
-44.6781
 20
37.3964
 30
0.0
 10
-44.6781
 20
37.3964
 30
0.0
 10
-44.8963
 20
37.3418
 30
0.0
 10
-44.8963
 20
37.3418
 30
0.0
 10
-44.8963
 20
37.3418
 30
0.0
 10
-44.8963
 20
37.3418
 30
0.0
 10
-45.1146
 20
37.2327
 30
0.0
 10
-45.1146
 20
37.2327
 30
0.0
 10
-45.1146
 20
37.2327
 30
0.0
 10
-45.1146
 20
37.2327
 30
0.0
 10
-45.2783
 20
37.0963
 30
0.0
 10
-45.2783
 20
37.0963
 30
0.0
 10
-45.2783
 20
37.0963
 30
0.0
 10
-45.2783
 20
37.0963
 30
0.0
 10
-45.4147
 20
36.9053
 30
0.0
 10
-45.4147
 20
36.9053
 30
0.0
 10
-45.4147
 20
36.9053
 30
0.0
 10
-45.4147
 20
36.9053
 30
0.0
 10
-45.52390000000001
 20
36.7143
 30
0.0
 10
-45.52390000000001
 20
36.7143
 30
0.0
 10
-45.52390000000001
 20
36.7143
 30
0.0
 10
-45.52390000000001
 20
36.7143
 30
0.0
 10
-45.6057
 20
36.496
 30
0.0
 10
-45.6057
 20
36.496
 30
0.0
 10
-45.6057
 20
36.496
 30
0.0
 10
-45.6057
 20
36.496
 30
0.0
 10
-45.6057
 20
36.2778
 30
0.0
 10
-45.6057
 20
36.2778
 30
0.0
  0
SPLINE
  5
11C
330
1F
100
AcDbEntity
  8
Ebene 1
370
    35
100
AcDbSpline
210
0.0
220
0.0
230
1.0
 70
    24
 71
     3
 72
     8
 73
     4
 74
     0
 42
0.0000000001
 43
0.0000000001
 40
0.0
 40
0.0
 40
0.0
 40
0.0
 40
1.0
 40
1.0
 40
1.0
 40
1.0
 10
-45.6057
 20
36.2778
 30
0.0
 10
-45.6057
 20
36.2778
 30
0.0
 10
-45.6057
 20
-5.8761
 30
0.0
 10
-45.6057
 20
-5.8761
 30
0.0
  0
SPLINE
  5
11D
330
1F
100
AcDbEntity
  8
Ebene 1
370
    35
100
AcDbSpline
210
0.0
220
0.0
230
1.0
 70
     8
 71
     3
 72
    36
 73
    32
 74
     0
 42
0.0000000001
 43
0.0000000001
 40
0.0
 40
0.0
 40
0.0
 40
0.0
 40
0.125
 40
0.125
 40
0.125
 40
0.125
 40
0.25
 40
0.25
 40
0.25
 40
0.25
 40
0.375
 40
0.375
 40
0.375
 40
0.375
 40
0.5
 40
0.5
 40
0.5
 40
0.5
 40
0.625
 40
0.625
 40
0.625
 40
0.625
 40
0.75
 40
0.75
 40
0.75
 40
0.75
 40
0.875
 40
0.875
 40
0.875
 40
0.875
 40
1.0
 40
1.0
 40
1.0
 40
1.0
 10
-45.6057
 20
-5.8761
 30
0.0
 10
-45.6057
 20
-5.8761
 30
0.0
 10
-45.6057
 20
-6.0944
 30
0.0
 10
-45.6057
 20
-6.0944
 30
0.0
 10
-45.6057
 20
-6.0944
 30
0.0
 10
-45.6057
 20
-6.0944
 30
0.0
 10
-45.52390000000001
 20
-6.3127
 30
0.0
 10
-45.52390000000001
 20
-6.3127
 30
0.0
 10
-45.52390000000001
 20
-6.3127
 30
0.0
 10
-45.52390000000001
 20
-6.3127
 30
0.0
 10
-45.4147
 20
-6.5309
 30
0.0
 10
-45.4147
 20
-6.5309
 30
0.0
 10
-45.4147
 20
-6.5309
 30
0.0
 10
-45.4147
 20
-6.5309
 30
0.0
 10
-45.2783
 20
-6.6946
 30
0.0
 10
-45.2783
 20
-6.6946
 30
0.0
 10
-45.2783
 20
-6.6946
 30
0.0
 10
-45.2783
 20
-6.6946
 30
0.0
 10
-45.1146
 20
-6.858300000000001
 30
0.0
 10
-45.1146
 20
-6.858300000000001
 30
0.0
 10
-45.1146
 20
-6.858300000000001
 30
0.0
 10
-45.1146
 20
-6.858300000000001
 30
0.0
 10
-44.8963
 20
-6.9402
 30
0.0
 10
-44.8963
 20
-6.9402
 30
0.0
 10
-44.8963
 20
-6.9402
 30
0.0
 10
-44.8963
 20
-6.9402
 30
0.0
 10
-44.6781
 20
-7.0221
 30
0.0
 10
-44.6781
 20
-7.0221
 30
0.0
 10
-44.6781
 20
-7.0221
 30
0.0
 10
-44.6781
 20
-7.0221
 30
0.0
 10
-44.45970000000001
 20
-7.0494
 30
0.0
 10
-44.45970000000001
 20
-7.0494
 30
0.0
  0
SPLINE
  5
11E
330
1F
100
AcDbEntity
  8
Ebene 1
370
    35
100
AcDbSpline
210
0.0
220
0.0
230
1.0
 70
    24
 71
     3
 72
     8
 73
     4
 74
     0
 42
0.0000000001
 43
0.0000000001
 40
0.0
 40
0.0
 40
0.0
 40
0.0
 40
1.0
 40
1.0
 40
1.0
 40
1.0
 10
-44.45970000000001
 20
-7.0494
 30
0.0
 10
-44.45970000000001
 20
-7.0494
 30
0.0
 10
-2.306
 20
-7.0494
 30
0.0
 10
-2.306
 20
-7.0494
 30
0.0
  0
SPLINE
  5
11F
330
1F
100
AcDbEntity
  8
Ebene 1
370
    35
100
AcDbSpline
210
0.0
220
0.0
230
1.0
 70
     8
 71
     3
 72
    36
 73
    32
 74
     0
 42
0.0000000001
 43
0.0000000001
 40
0.0
 40
0.0
 40
0.0
 40
0.0
 40
0.125
 40
0.125
 40
0.125
 40
0.125
 40
0.25
 40
0.25
 40
0.25
 40
0.25
 40
0.375
 40
0.375
 40
0.375
 40
0.375
 40
0.5
 40
0.5
 40
0.5
 40
0.5
 40
0.625
 40
0.625
 40
0.625
 40
0.625
 40
0.75
 40
0.75
 40
0.75
 40
0.75
 40
0.875
 40
0.875
 40
0.875
 40
0.875
 40
1.0
 40
1.0
 40
1.0
 40
1.0
 10
-2.306
 20
-7.0494
 30
0.0
 10
-2.306
 20
-7.0494
 30
0.0
 10
-2.0876
 20
-7.0221
 30
0.0
 10
-2.0876
 20
-7.0221
 30
0.0
 10
-2.0876
 20
-7.0221
 30
0.0
 10
-2.0876
 20
-7.0221
 30
0.0
 10
-1.8694
 20
-6.9402
 30
0.0
 10
-1.8694
 20
-6.9402
 30
0.0
 10
-1.8694
 20
-6.9402
 30
0.0
 10
-1.8694
 20
-6.9402
 30
0.0
 10
-1.6511
 20
-6.858300000000001
 30
0.0
 10
-1.6511
 20
-6.858300000000001
 30
0.0
 10
-1.6511
 20
-6.858300000000001
 30
0.0
 10
-1.6511
 20
-6.858300000000001
 30
0.0
 10
-1.4874
 20
-6.6946
 30
0.0
 10
-1.4874
 20
-6.6946
 30
0.0
 10
-1.4874
 20
-6.6946
 30
0.0
 10
-1.4874
 20
-6.6946
 30
0.0
 10
-1.351
 20
-6.5309
 30
0.0
 10
-1.351
 20
-6.5309
 30
0.0
 10
-1.351
 20
-6.5309
 30
0.0
 10
-1.351
 20
-6.5309
 30
0.0
 10
-1.2418
 20
-6.3127
 30
0.0
 10
-1.2418
 20
-6.3127
 30
0.0
 10
-1.2418
 20
-6.3127
 30
0.0
 10
-1.2418
 20
-6.3127
 30
0.0
 10
-1.16
 20
-6.0944
 30
0.0
 10
-1.16
 20
-6.0944
 30
0.0
 10
-1.16
 20
-6.0944
 30
0.0
 10
-1.16
 20
-6.0944
 30
0.0
 10
-1.1327
 20
-5.8761
 30
0.0
 10
-1.1327
 20
-5.8761
 30
0.0
  0
SPLINE
  5
120
330
1F
100
AcDbEntity
  8
Ebene 1
370
    35
100
AcDbSpline
210
0.0
220
0.0
230
1.0
 70
    11
 71
     3
 72
   508
 73
   504
 74
     0
 42
0.0000000001
 43
0.0000000001
 40
0.0
 40
0.0
 40
0.0
 40
0.0
 40
0.0079365079365079
 40
0.0079365079365079
 40
0.0079365079365079
 40
0.0079365079365079
 40
0.0158730158730159
 40
0.0158730158730159
 40
0.0158730158730159
 40
0.0158730158730159
 40
0.0238095238095238
 40
0.0238095238095238
 40
0.0238095238095238
 40
0.0238095238095238
 40
0.0317460317460317
 40
0.0317460317460317
 40
0.0317460317460317
 40
0.0317460317460317
 40
0.0396825396825397
 40
0.0396825396825397
 40
0.0396825396825397
 40
0.0396825396825397
 40
0.0476190476190476
 40
0.0476190476190476
 40
0.0476190476190476
 40
0.0476190476190476
 40
0.0555555555555556
 40
0.0555555555555556
 40
0.0555555555555556
 40
0.0555555555555556
 40
0.0634920634920635
 40
0.0634920634920635
 40
0.0634920634920635
 40
0.0634920634920635
 40
0.0714285714285714
 40
0.0714285714285714
 40
0.0714285714285714
 40
0.0714285714285714
 40
0.0793650793650794
 40
0.0793650793650794
 40
0.0793650793650794
 40
0.0793650793650794
 40
0.0873015873015873
 40
0.0873015873015873
 40
0.0873015873015873
 40
0.0873015873015873
 40
0.0952380952380952
 40
0.0952380952380952
 40
0.0952380952380952
 40
0.0952380952380952
 40
0.1031746031746032
 40
0.1031746031746032
 40
0.1031746031746032
 40
0.1031746031746032
 40
0.1111111111111111
 40
0.1111111111111111
 40
0.1111111111111111
 40
0.1111111111111111
 40
0.119047619047619
 40
0.119047619047619
 40
0.119047619047619
 40
0.119047619047619
 40
0.126984126984127
 40
0.126984126984127
 40
0.126984126984127
 40
0.126984126984127
 40
0.1349206349206349
 40
0.1349206349206349
 40
0.1349206349206349
 40
0.1349206349206349
 40
0.1428571428571429
 40
0.1428571428571429
 40
0.1428571428571429
 40
0.1428571428571429
 40
0.1507936507936508
 40
0.1507936507936508
 40
0.1507936507936508
 40
0.1507936507936508
 40
0.1587301587301587
 40
0.1587301587301587
 40
0.1587301587301587
 40
0.1587301587301587
 40
0.1666666666666667
 40
0.1666666666666667
 40
0.1666666666666667
 40
0.1666666666666667
 40
0.1746031746031746
 40
0.1746031746031746
 40
0.1746031746031746
 40
0.1746031746031746
 40
0.1825396825396825
 40
0.1825396825396825
 40
0.1825396825396825
 40
0.1825396825396825
 40
0.1904761904761905
 40
0.1904761904761905
 40
0.1904761904761905
 40
0.1904761904761905
 40
0.1984126984126984
 40
0.1984126984126984
 40
0.1984126984126984
 40
0.1984126984126984
 40
0.2063492063492063
 40
0.2063492063492063
 40
0.2063492063492063
 40
0.2063492063492063
 40
0.2142857142857143
 40
0.2142857142857143
 40
0.2142857142857143
 40
0.2142857142857143
 40
0.2222222222222222
 40
0.2222222222222222
 40
0.2222222222222222
 40
0.2222222222222222
 40
0.2301587301587302
 40
0.2301587301587302
 40
0.2301587301587302
 40
0.2301587301587302
 40
0.2380952380952381
 40
0.2380952380952381
 40
0.2380952380952381
 40
0.2380952380952381
 40
0.246031746031746
 40
0.246031746031746
 40
0.246031746031746
 40
0.246031746031746
 40
0.253968253968254
 40
0.253968253968254
 40
0.253968253968254
 40
0.253968253968254
 40
0.2619047619047619
 40
0.2619047619047619
 40
0.2619047619047619
 40
0.2619047619047619
 40
0.2698412698412698
 40
0.2698412698412698
 40
0.2698412698412698
 40
0.2698412698412698
 40
0.2777777777777777
 40
0.2777777777777777
 40
0.2777777777777777
 40
0.2777777777777777
 40
0.2857142857142856
 40
0.2857142857142856
 40
0.2857142857142856
 40
0.2857142857142856
 40
0.2936507936507935
 40
0.2936507936507935
 40
0.2936507936507935
 40
0.2936507936507935
 40
0.3015873015873014
 40
0.3015873015873014
 40
0.3015873015873014
 40
0.3015873015873014
 40
0.3095238095238093
 40
0.3095238095238093
 40
0.3095238095238093
 40
0.3095238095238093
 40
0.3174603174603172
 40
0.3174603174603172
 40
0.3174603174603172
 40
0.3174603174603172
 40
0.3253968253968251
 40
0.3253968253968251
 40
0.3253968253968251
 40
0.3253968253968251
 40
0.333333333333333
 40
0.333333333333333
 40
0.333333333333333
 40
0.333333333333333
 40
0.341269841269841
 40
0.341269841269841
 40
0.341269841269841
 40
0.341269841269841
 40
0.3492063492063489
 40
0.3492063492063489
 40
0.3492063492063489
 40
0.3492063492063489
 40
0.3571428571428568
 40
0.3571428571428568
 40
0.3571428571428568
 40
0.3571428571428568
 40
0.3650793650793647
 40
0.3650793650793647
 40
0.3650793650793647
 40
0.3650793650793647
 40
0.3730158730158726
 40
0.3730158730158726
 40
0.3730158730158726
 40
0.3730158730158726
 40
0.3809523809523805
 40
0.3809523809523805
 40
0.3809523809523805
 40
0.3809523809523805
 40
0.3888888888888884
 40
0.3888888888888884
 40
0.3888888888888884
 40
0.3888888888888884
 40
0.3968253968253963
 40
0.3968253968253963
 40
0.3968253968253963
 40
0.3968253968253963
 40
0.4047619047619042
 40
0.4047619047619042
 40
0.4047619047619042
 40
0.4047619047619042
 40
0.4126984126984121
 40
0.4126984126984121
 40
0.4126984126984121
 40
0.4126984126984121
 40
0.42063492063492
 40
0.42063492063492
 40
0.42063492063492
 40
0.42063492063492
 40
0.4285714285714279
 40
0.4285714285714279
 40
0.4285714285714279
 40
0.4285714285714279
 40
0.4365079365079359
 40
0.4365079365079359
 40
0.4365079365079359
 40
0.4365079365079359
 40
0.4444444444444438
 40
0.4444444444444438
 40
0.4444444444444438
 40
0.4444444444444438
 40
0.4523809523809517
 40
0.4523809523809517
 40
0.4523809523809517
 40
0.4523809523809517
 40
0.4603174603174596
 40
0.4603174603174596
 40
0.4603174603174596
 40
0.4603174603174596
 40
0.4682539682539675
 40
0.4682539682539675
 40
0.4682539682539675
 40
0.4682539682539675
 40
0.4761904761904754
 40
0.4761904761904754
 40
0.4761904761904754
 40
0.4761904761904754
 40
0.4841269841269833
 40
0.4841269841269833
 40
0.4841269841269833
 40
0.4841269841269833
 40
0.4920634920634912
 40
0.4920634920634912
 40
0.4920634920634912
 40
0.4920634920634912
 40
0.4999999999999991
 40
0.4999999999999991
 40
0.4999999999999991
 40
0.4999999999999991
 40
0.507936507936507
 40
0.507936507936507
 40
0.507936507936507
 40
0.507936507936507
 40
0.5158730158730149
 40
0.5158730158730149
 40
0.5158730158730149
 40
0.5158730158730149
 40
0.5238095238095228
 40
0.5238095238095228
 40
0.5238095238095228
 40
0.5238095238095228
 40
0.5317460317460308
 40
0.5317460317460308
 40
0.5317460317460308
 40
0.5317460317460308
 40
0.5396825396825387
 40
0.5396825396825387
 40
0.5396825396825387
 40
0.5396825396825387
 40
0.5476190476190466
 40
0.5476190476190466
 40
0.5476190476190466
 40
0.5476190476190466
 40
0.5555555555555545
 40
0.5555555555555545
 40
0.5555555555555545
 40
0.5555555555555545
 40
0.5634920634920624
 40
0.5634920634920624
 40
0.5634920634920624
 40
0.5634920634920624
 40
0.5714285714285703
 40
0.5714285714285703
 40
0.5714285714285703
 40
0.5714285714285703
 40
0.5793650793650782
 40
0.5793650793650782
 40
0.5793650793650782
 40
0.5793650793650782
 40
0.5873015873015861
 40
0.5873015873015861
 40
0.5873015873015861
 40
0.5873015873015861
 40
0.595238095238094
 40
0.595238095238094
 40
0.595238095238094
 40
0.595238095238094
 40
0.6031746031746019
 40
0.6031746031746019
 40
0.6031746031746019
 40
0.6031746031746019
 40
0.6111111111111098
 40
0.6111111111111098
 40
0.6111111111111098
 40
0.6111111111111098
 40
0.6190476190476177
 40
0.6190476190476177
 40
0.6190476190476177
 40
0.6190476190476177
 40
0.6269841269841256
 40
0.6269841269841256
 40
0.6269841269841256
 40
0.6269841269841256
 40
0.6349206349206336
 40
0.6349206349206336
 40
0.6349206349206336
 40
0.6349206349206336
 40
0.6428571428571415
 40
0.6428571428571415
 40
0.6428571428571415
 40
0.6428571428571415
 40
0.6507936507936494
 40
0.6507936507936494
 40
0.6507936507936494
 40
0.6507936507936494
 40
0.6587301587301573
 40
0.6587301587301573
 40
0.6587301587301573
 40
0.6587301587301573
 40
0.6666666666666652
 40
0.6666666666666652
 40
0.6666666666666652
 40
0.6666666666666652
 40
0.6746031746031731
 40
0.6746031746031731
 40
0.6746031746031731
 40
0.6746031746031731
 40
0.682539682539681
 40
0.682539682539681
 40
0.682539682539681
 40
0.682539682539681
 40
0.6904761904761889
 40
0.6904761904761889
 40
0.6904761904761889
 40
0.6904761904761889
 40
0.6984126984126968
 40
0.6984126984126968
 40
0.6984126984126968
 40
0.6984126984126968
 40
0.7063492063492047
 40
0.7063492063492047
 40
0.7063492063492047
 40
0.7063492063492047
 40
0.7142857142857126
 40
0.7142857142857126
 40
0.7142857142857126
 40
0.7142857142857126
 40
0.7222222222222205
 40
0.7222222222222205
 40
0.7222222222222205
 40
0.7222222222222205
 40
0.7301587301587285
 40
0.7301587301587285
 40
0.7301587301587285
 40
0.7301587301587285
 40
0.7380952380952364
 40
0.7380952380952364
 40
0.7380952380952364
 40
0.7380952380952364
 40
0.7460317460317443
 40
0.7460317460317443
 40
0.7460317460317443
 40
0.7460317460317443
 40
0.7539682539682522
 40
0.7539682539682522
 40
0.7539682539682522
 40
0.7539682539682522
 40
0.7619047619047601
 40
0.7619047619047601
 40
0.7619047619047601
 40
0.7619047619047601
 40
0.769841269841268
 40
0.769841269841268
 40
0.769841269841268
 40
0.769841269841268
 40
0.7777777777777759
 40
0.7777777777777759
 40
0.7777777777777759
 40
0.7777777777777759
 40
0.7857142857142838
 40
0.7857142857142838
 40
0.7857142857142838
 40
0.7857142857142838
 40
0.7936507936507917
 40
0.7936507936507917
 40
0.7936507936507917
 40
0.7936507936507917
 40
0.8015873015872996
 40
0.8015873015872996
 40
0.8015873015872996
 40
0.8015873015872996
 40
0.8095238095238075
 40
0.8095238095238075
 40
0.8095238095238075
 40
0.8095238095238075
 40
0.8174603174603154
 40
0.8174603174603154
 40
0.8174603174603154
 40
0.8174603174603154
 40
0.8253968253968234
 40
0.8253968253968234
 40
0.8253968253968234
 40
0.8253968253968234
 40
0.8333333333333313
 40
0.8333333333333313
 40
0.8333333333333313
 40
0.8333333333333313
 40
0.8412698412698392
 40
0.8412698412698392
 40
0.8412698412698392
 40
0.8412698412698392
 40
0.8492063492063471
 40
0.8492063492063471
 40
0.8492063492063471
 40
0.8492063492063471
 40
0.857142857142855
 40
0.857142857142855
 40
0.857142857142855
 40
0.857142857142855
 40
0.8650793650793629
 40
0.8650793650793629
 40
0.8650793650793629
 40
0.8650793650793629
 40
0.8730158730158708
 40
0.8730158730158708
 40
0.8730158730158708
 40
0.8730158730158708
 40
0.8809523809523787
 40
0.8809523809523787
 40
0.8809523809523787
 40
0.8809523809523787
 40
0.8888888888888866
 40
0.8888888888888866
 40
0.8888888888888866
 40
0.8888888888888866
 40
0.8968253968253945
 40
0.8968253968253945
 40
0.8968253968253945
 40
0.8968253968253945
 40
0.9047619047619024
 40
0.9047619047619024
 40
0.9047619047619024
 40
0.9047619047619024
 40
0.9126984126984103
 40
0.9126984126984103
 40
0.9126984126984103
 40
0.9126984126984103
 40
0.9206349206349183
 40
0.9206349206349183
 40
0.9206349206349183
 40
0.9206349206349183
 40
0.9285714285714262
 40
0.9285714285714262
 40
0.9285714285714262
 40
0.9285714285714262
 40
0.9365079365079341
 40
0.9365079365079341
 40
0.9365079365079341
 40
0.9365079365079341
 40
0.944444444444442
 40
0.944444444444442
 40
0.944444444444442
 40
0.944444444444442
 40
0.9523809523809499
 40
0.9523809523809499
 40
0.9523809523809499
 40
0.9523809523809499
 40
0.9603174603174578
 40
0.9603174603174578
 40
0.9603174603174578
 40
0.9603174603174578
 40
0.9682539682539657
 40
0.9682539682539657
 40
0.9682539682539657
 40
0.9682539682539657
 40
0.9761904761904736
 40
0.9761904761904736
 40
0.9761904761904736
 40
0.9761904761904736
 40
0.9841269841269815
 40
0.9841269841269815
 40
0.9841269841269815
 40
0.9841269841269815
 40
0.9920634920634894
 40
0.9920634920634894
 40
0.9920634920634894
 40
0.9920634920634894
 40
1.0
 40
1.0
 40
1.0
 40
1.0
 10
-23.3692
 20
-2.2201
 30
0.0
 10
-23.3692
 20
-2.2201
 30
0.0
 10
-22.5234
 20
-2.1928
 30
0.0
 10
-22.5234
 20
-2.1928
 30
0.0
 10
-22.5234
 20
-2.1928
 30
0.0
 10
-22.5234
 20
-2.1928
 30
0.0
 10
-21.6503
 20
-2.1109
 30
0.0
 10
-21.6503
 20
-2.1109
 30
0.0
 10
-21.6503
 20
-2.1109
 30
0.0
 10
-21.6503
 20
-2.1109
 30
0.0
 10
-20.7772
 20
-2.0018
 30
0.0
 10
-20.7772
 20
-2.0018
 30
0.0
 10
-20.7772
 20
-2.0018
 30
0.0
 10
-20.7772
 20
-2.0018
 30
0.0
 10
-19.9314
 20
-1.8654
 30
0.0
 10
-19.9314
 20
-1.8654
 30
0.0
 10
-19.9314
 20
-1.8654
 30
0.0
 10
-19.9314
 20
-1.8654
 30
0.0
 10
-19.0856
 20
-1.6743
 30
0.0
 10
-19.0856
 20
-1.6743
 30
0.0
 10
-19.0856
 20
-1.6743
 30
0.0
 10
-19.0856
 20
-1.6743
 30
0.0
 10
-18.2398
 20
-1.4288
 30
0.0
 10
-18.2398
 20
-1.4288
 30
0.0
 10
-18.2398
 20
-1.4288
 30
0.0
 10
-18.2398
 20
-1.4288
 30
0.0
 10
-17.4213
 20
-1.156
 30
0.0
 10
-17.4213
 20
-1.156
 30
0.0
 10
-17.4213
 20
-1.156
 30
0.0
 10
-17.4213
 20
-1.156
 30
0.0
 10
-16.6301
 20
-0.8285
 30
0.0
 10
-16.6301
 20
-0.8285
 30
0.0
 10
-16.6301
 20
-0.8285
 30
0.0
 10
-16.6301
 20
-0.8285
 30
0.0
 10
-15.8388
 20
-0.4739
 30
0.0
 10
-15.8388
 20
-0.4739
 30
0.0
 10
-15.8388
 20
-0.4739
 30
0.0
 10
-15.8388
 20
-0.4739
 30
0.0
 10
-15.0476
 20
-0.0919
 30
0.0
 10
-15.0476
 20
-0.0919
 30
0.0
 10
-15.0476
 20
-0.0919
 30
0.0
 10
-15.0476
 20
-0.0919
 30
0.0
 10
-14.3109
 20
0.3446
 30
0.0
 10
-14.3109
 20
0.3446
 30
0.0
 10
-14.3109
 20
0.3446
 30
0.0
 10
-14.3109
 20
0.3446
 30
0.0
 10
-13.5742
 20
0.8084
 30
0.0
 10
-13.5742
 20
0.8084
 30
0.0
 10
-13.5742
 20
0.8084
 30
0.0
 10
-13.5742
 20
0.8084
 30
0.0
 10
-12.8649
 20
1.3269
 30
0.0
 10
-12.8649
 20
1.3269
 30
0.0
 10
-12.8649
 20
1.3269
 30
0.0
 10
-12.8649
 20
1.3269
 30
0.0
 10
-12.1827
 20
1.8726
 30
0.0
 10
-12.1827
 20
1.8726
 30
0.0
 10
-12.1827
 20
1.8726
 30
0.0
 10
-12.1827
 20
1.8726
 30
0.0
 10
-11.5552
 20
2.4455
 30
0.0
 10
-11.5552
 20
2.4455
 30
0.0
 10
-11.5552
 20
2.4455
 30
0.0
 10
-11.5552
 20
2.4455
 30
0.0
 10
-10.9277
 20
3.0458
 30
0.0
 10
-10.9277
 20
3.0458
 30
0.0
 10
-10.9277
 20
3.0458
 30
0.0
 10
-10.9277
 20
3.0458
 30
0.0
 10
-10.3274
 20
3.6733
 30
0.0
 10
-10.3274
 20
3.6733
 30
0.0
 10
-10.3274
 20
3.6733
 30
0.0
 10
-10.3274
 20
3.6733
 30
0.0
 10
-9.781800000000001
 20
4.3554
 30
0.0
 10
-9.781800000000001
 20
4.3554
 30
0.0
 10
-9.781800000000001
 20
4.3554
 30
0.0
 10
-9.781800000000001
 20
4.3554
 30
0.0
 10
-9.263400000000001
 20
5.037500000000001
 30
0.0
 10
-9.263400000000001
 20
5.037500000000001
 30
0.0
 10
-9.263400000000001
 20
5.037500000000001
 30
0.0
 10
-9.263400000000001
 20
5.037500000000001
 30
0.0
 10
-8.7722
 20
5.7469
 30
0.0
 10
-8.7722
 20
5.7469
 30
0.0
 10
-8.7722
 20
5.7469
 30
0.0
 10
-8.7722
 20
5.7469
 30
0.0
 10
-8.308400000000001
 20
6.4835
 30
0.0
 10
-8.308400000000001
 20
6.4835
 30
0.0
 10
-8.308400000000001
 20
6.4835
 30
0.0
 10
-8.308400000000001
 20
6.4835
 30
0.0
 10
-7.8992
 20
7.247500000000001
 30
0.0
 10
-7.8992
 20
7.247500000000001
 30
0.0
 10
-7.8992
 20
7.247500000000001
 30
0.0
 10
-7.8992
 20
7.247500000000001
 30
0.0
 10
-7.517200000000001
 20
8.0388
 30
0.0
 10
-7.517200000000001
 20
8.0388
 30
0.0
 10
-7.517200000000001
 20
8.0388
 30
0.0
 10
-7.517200000000001
 20
8.0388
 30
0.0
 10
-7.1898
 20
8.83
 30
0.0
 10
-7.1898
 20
8.83
 30
0.0
 10
-7.1898
 20
8.83
 30
0.0
 10
-7.1898
 20
8.83
 30
0.0
 10
-6.889600000000001
 20
9.6485
 30
0.0
 10
-6.889600000000001
 20
9.6485
 30
0.0
 10
-6.889600000000001
 20
9.6485
 30
0.0
 10
-6.889600000000001
 20
9.6485
 30
0.0
 10
-6.616800000000001
 20
10.4944
 30
0.0
 10
-6.616800000000001
 20
10.4944
 30
0.0
 10
-6.616800000000001
 20
10.4944
 30
0.0
 10
-6.616800000000001
 20
10.4944
 30
0.0
 10
-6.425800000000001
 20
11.3129
 30
0.0
 10
-6.425800000000001
 20
11.3129
 30
0.0
 10
-6.425800000000001
 20
11.3129
 30
0.0
 10
-6.425800000000001
 20
11.3129
 30
0.0
 10
-6.234900000000001
 20
12.186
 30
0.0
 10
-6.234900000000001
 20
12.186
 30
0.0
 10
-6.234900000000001
 20
12.186
 30
0.0
 10
-6.234900000000001
 20
12.186
 30
0.0
 10
-6.1257
 20
13.0317
 30
0.0
 10
-6.1257
 20
13.0317
 30
0.0
 10
-6.1257
 20
13.0317
 30
0.0
 10
-6.1257
 20
13.0317
 30
0.0
 10
-6.016500000000001
 20
13.9048
 30
0.0
 10
-6.016500000000001
 20
13.9048
 30
0.0
 10
-6.016500000000001
 20
13.9048
 30
0.0
 10
-6.016500000000001
 20
13.9048
 30
0.0
 10
-5.9893
 20
14.7506
 30
0.0
 10
-5.9893
 20
14.7506
 30
0.0
 10
-5.9893
 20
14.7506
 30
0.0
 10
-5.9893
 20
14.7506
 30
0.0
 10
-5.9893
 20
15.6237
 30
0.0
 10
-5.9893
 20
15.6237
 30
0.0
 10
-5.9893
 20
15.6237
 30
0.0
 10
-5.9893
 20
15.6237
 30
0.0
 10
-6.016500000000001
 20
16.4968
 30
0.0
 10
-6.016500000000001
 20
16.4968
 30
0.0
 10
-6.016500000000001
 20
16.4968
 30
0.0
 10
-6.016500000000001
 20
16.4968
 30
0.0
 10
-6.1257
 20
17.3699
 30
0.0
 10
-6.1257
 20
17.3699
 30
0.0
 10
-6.1257
 20
17.3699
 30
0.0
 10
-6.1257
 20
17.3699
 30
0.0
 10
-6.234900000000001
 20
18.2157
 30
0.0
 10
-6.234900000000001
 20
18.2157
 30
0.0
 10
-6.234900000000001
 20
18.2157
 30
0.0
 10
-6.234900000000001
 20
18.2157
 30
0.0
 10
-6.425800000000001
 20
19.0615
 30
0.0
 10
-6.425800000000001
 20
19.0615
 30
0.0
 10
-6.425800000000001
 20
19.0615
 30
0.0
 10
-6.425800000000001
 20
19.0615
 30
0.0
 10
-6.616800000000001
 20
19.9073
 30
0.0
 10
-6.616800000000001
 20
19.9073
 30
0.0
 10
-6.616800000000001
 20
19.9073
 30
0.0
 10
-6.616800000000001
 20
19.9073
 30
0.0
 10
-6.889600000000001
 20
20.7258
 30
0.0
 10
-6.889600000000001
 20
20.7258
 30
0.0
 10
-6.889600000000001
 20
20.7258
 30
0.0
 10
-6.889600000000001
 20
20.7258
 30
0.0
 10
-7.1898
 20
21.5444
 30
0.0
 10
-7.1898
 20
21.5444
 30
0.0
 10
-7.1898
 20
21.5444
 30
0.0
 10
-7.1898
 20
21.5444
 30
0.0
 10
-7.517200000000001
 20
22.3629
 30
0.0
 10
-7.517200000000001
 20
22.3629
 30
0.0
 10
-7.517200000000001
 20
22.3629
 30
0.0
 10
-7.517200000000001
 20
22.3629
 30
0.0
 10
-7.8992
 20
23.1269
 30
0.0
 10
-7.8992
 20
23.1269
 30
0.0
 10
-7.8992
 20
23.1269
 30
0.0
 10
-7.8992
 20
23.1269
 30
0.0
 10
-8.308400000000001
 20
23.8908
 30
0.0
 10
-8.308400000000001
 20
23.8908
 30
0.0
 10
-8.308400000000001
 20
23.8908
 30
0.0
 10
-8.308400000000001
 20
23.8908
 30
0.0
 10
-8.7722
 20
24.6274
 30
0.0
 10
-8.7722
 20
24.6274
 30
0.0
 10
-8.7722
 20
24.6274
 30
0.0
 10
-8.7722
 20
24.6274
 30
0.0
 10
-9.263400000000001
 20
25.3641
 30
0.0
 10
-9.263400000000001
 20
25.3641
 30
0.0
 10
-9.263400000000001
 20
25.3641
 30
0.0
 10
-9.263400000000001
 20
25.3641
 30
0.0
 10
-9.781800000000001
 20
26.0462
 30
0.0
 10
-9.781800000000001
 20
26.0462
 30
0.0
 10
-9.781800000000001
 20
26.0462
 30
0.0
 10
-9.781800000000001
 20
26.0462
 30
0.0
 10
-10.3274
 20
26.7011
 30
0.0
 10
-10.3274
 20
26.7011
 30
0.0
 10
-10.3274
 20
26.7011
 30
0.0
 10
-10.3274
 20
26.7011
 30
0.0
 10
-10.9277
 20
27.3559
 30
0.0
 10
-10.9277
 20
27.3559
 30
0.0
 10
-10.9277
 20
27.3559
 30
0.0
 10
-10.9277
 20
27.3559
 30
0.0
 10
-11.5552
 20
27.9561
 30
0.0
 10
-11.5552
 20
27.9561
 30
0.0
 10
-11.5552
 20
27.9561
 30
0.0
 10
-11.5552
 20
27.9561
 30
0.0
 10
-12.1827
 20
28.5291
 30
0.0
 10
-12.1827
 20
28.5291
 30
0.0
 10
-12.1827
 20
28.5291
 30
0.0
 10
-12.1827
 20
28.5291
 30
0.0
 10
-12.8649
 20
29.0747
 30
0.0
 10
-12.8649
 20
29.0747
 30
0.0
 10
-12.8649
 20
29.0747
 30
0.0
 10
-12.8649
 20
29.0747
 30
0.0
 10
-13.5742
 20
29.5659
 30
0.0
 10
-13.5742
 20
29.5659
 30
0.0
 10
-13.5742
 20
29.5659
 30
0.0
 10
-13.5742
 20
29.5659
 30
0.0
 10
-14.3109
 20
30.057
 30
0.0
 10
-14.3109
 20
30.057
 30
0.0
 10
-14.3109
 20
30.057
 30
0.0
 10
-14.3109
 20
30.057
 30
0.0
 10
-15.0476
 20
30.4663
 30
0.0
 10
-15.0476
 20
30.4663
 30
0.0
 10
-15.0476
 20
30.4663
 30
0.0
 10
-15.0476
 20
30.4663
 30
0.0
 10
-15.8388
 20
30.8755
 30
0.0
 10
-15.8388
 20
30.8755
 30
0.0
 10
-15.8388
 20
30.8755
 30
0.0
 10
-15.8388
 20
30.8755
 30
0.0
 10
-16.6301
 20
31.2302
 30
0.0
 10
-16.6301
 20
31.2302
 30
0.0
 10
-16.6301
 20
31.2302
 30
0.0
 10
-16.6301
 20
31.2302
 30
0.0
 10
-17.4213
 20
31.5576
 30
0.0
 10
-17.4213
 20
31.5576
 30
0.0
 10
-17.4213
 20
31.5576
 30
0.0
 10
-17.4213
 20
31.5576
 30
0.0
 10
-18.2398
 20
31.8305
 30
0.0
 10
-18.2398
 20
31.8305
 30
0.0
 10
-18.2398
 20
31.8305
 30
0.0
 10
-18.2398
 20
31.8305
 30
0.0
 10
-19.0856
 20
32.0487
 30
0.0
 10
-19.0856
 20
32.0487
 30
0.0
 10
-19.0856
 20
32.0487
 30
0.0
 10
-19.0856
 20
32.0487
 30
0.0
 10
-19.9314
 20
32.2397
 30
0.0
 10
-19.9314
 20
32.2397
 30
0.0
 10
-19.9314
 20
32.2397
 30
0.0
 10
-19.9314
 20
32.2397
 30
0.0
 10
-20.7772
 20
32.40340000000001
 30
0.0
 10
-20.7772
 20
32.40340000000001
 30
0.0
 10
-20.7772
 20
32.40340000000001
 30
0.0
 10
-20.7772
 20
32.40340000000001
 30
0.0
 10
-21.6503
 20
32.5125
 30
0.0
 10
-21.6503
 20
32.5125
 30
0.0
 10
-21.6503
 20
32.5125
 30
0.0
 10
-21.6503
 20
32.5125
 30
0.0
 10
-22.5234
 20
32.5671
 30
0.0
 10
-22.5234
 20
32.5671
 30
0.0
 10
-22.5234
 20
32.5671
 30
0.0
 10
-22.5234
 20
32.5671
 30
0.0
 10
-23.3692
 20
32.5944
 30
0.0
 10
-23.3692
 20
32.5944
 30
0.0
 10
-23.3692
 20
32.5944
 30
0.0
 10
-23.3692
 20
32.5944
 30
0.0
 10
-24.2423
 20
32.5671
 30
0.0
 10
-24.2423
 20
32.5671
 30
0.0
 10
-24.2423
 20
32.5671
 30
0.0
 10
-24.2423
 20
32.5671
 30
0.0
 10
-25.1154
 20
32.5125
 30
0.0
 10
-25.1154
 20
32.5125
 30
0.0
 10
-25.1154
 20
32.5125
 30
0.0
 10
-25.1154
 20
32.5125
 30
0.0
 10
-25.9885
 20
32.40340000000001
 30
0.0
 10
-25.9885
 20
32.40340000000001
 30
0.0
 10
-25.9885
 20
32.40340000000001
 30
0.0
 10
-25.9885
 20
32.40340000000001
 30
0.0
 10
-26.8343
 20
32.2397
 30
0.0
 10
-26.8343
 20
32.2397
 30
0.0
 10
-26.8343
 20
32.2397
 30
0.0
 10
-26.8343
 20
32.2397
 30
0.0
 10
-27.6801
 20
32.0487
 30
0.0
 10
-27.6801
 20
32.0487
 30
0.0
 10
-27.6801
 20
32.0487
 30
0.0
 10
-27.6801
 20
32.0487
 30
0.0
 10
-28.4986
 20
31.8305
 30
0.0
 10
-28.4986
 20
31.8305
 30
0.0
 10
-28.4986
 20
31.8305
 30
0.0
 10
-28.4986
 20
31.8305
 30
0.0
 10
-29.3444
 20
31.5576
 30
0.0
 10
-29.3444
 20
31.5576
 30
0.0
 10
-29.3444
 20
31.5576
 30
0.0
 10
-29.3444
 20
31.5576
 30
0.0
 10
-30.1356
 20
31.2302
 30
0.0
 10
-30.1356
 20
31.2302
 30
0.0
 10
-30.1356
 20
31.2302
 30
0.0
 10
-30.1356
 20
31.2302
 30
0.0
 10
-30.9269
 20
30.8755
 30
0.0
 10
-30.9269
 20
30.8755
 30
0.0
 10
-30.9269
 20
30.8755
 30
0.0
 10
-30.9269
 20
30.8755
 30
0.0
 10
-31.6908
 20
30.4663
 30
0.0
 10
-31.6908
 20
30.4663
 30
0.0
 10
-31.6908
 20
30.4663
 30
0.0
 10
-31.6908
 20
30.4663
 30
0.0
 10
-32.4548
 20
30.057
 30
0.0
 10
-32.4548
 20
30.057
 30
0.0
 10
-32.4548
 20
30.057
 30
0.0
 10
-32.4548
 20
30.057
 30
0.0
 10
-33.19150000000001
 20
29.5659
 30
0.0
 10
-33.19150000000001
 20
29.5659
 30
0.0
 10
-33.19150000000001
 20
29.5659
 30
0.0
 10
-33.19150000000001
 20
29.5659
 30
0.0
 10
-33.9008
 20
29.0747
 30
0.0
 10
-33.9008
 20
29.0747
 30
0.0
 10
-33.9008
 20
29.0747
 30
0.0
 10
-33.9008
 20
29.0747
 30
0.0
 10
-34.5557
 20
28.5291
 30
0.0
 10
-34.5557
 20
28.5291
 30
0.0
 10
-34.5557
 20
28.5291
 30
0.0
 10
-34.5557
 20
28.5291
 30
0.0
 10
-35.2105
 20
27.9561
 30
0.0
 10
-35.2105
 20
27.9561
 30
0.0
 10
-35.2105
 20
27.9561
 30
0.0
 10
-35.2105
 20
27.9561
 30
0.0
 10
-35.838
 20
27.3559
 30
0.0
 10
-35.838
 20
27.3559
 30
0.0
 10
-35.838
 20
27.3559
 30
0.0
 10
-35.838
 20
27.3559
 30
0.0
 10
-36.43830000000001
 20
26.7011
 30
0.0
 10
-36.43830000000001
 20
26.7011
 30
0.0
 10
-36.43830000000001
 20
26.7011
 30
0.0
 10
-36.43830000000001
 20
26.7011
 30
0.0
 10
-36.9839
 20
26.0462
 30
0.0
 10
-36.9839
 20
26.0462
 30
0.0
 10
-36.9839
 20
26.0462
 30
0.0
 10
-36.9839
 20
26.0462
 30
0.0
 10
-37.50230000000001
 20
25.3641
 30
0.0
 10
-37.50230000000001
 20
25.3641
 30
0.0
 10
-37.50230000000001
 20
25.3641
 30
0.0
 10
-37.50230000000001
 20
25.3641
 30
0.0
 10
-37.9935
 20
24.6274
 30
0.0
 10
-37.9935
 20
24.6274
 30
0.0
 10
-37.9935
 20
24.6274
 30
0.0
 10
-37.9935
 20
24.6274
 30
0.0
 10
-38.4573
 20
23.8908
 30
0.0
 10
-38.4573
 20
23.8908
 30
0.0
 10
-38.4573
 20
23.8908
 30
0.0
 10
-38.4573
 20
23.8908
 30
0.0
 10
-38.86660000000001
 20
23.1269
 30
0.0
 10
-38.86660000000001
 20
23.1269
 30
0.0
 10
-38.86660000000001
 20
23.1269
 30
0.0
 10
-38.86660000000001
 20
23.1269
 30
0.0
 10
-39.2485
 20
22.3629
 30
0.0
 10
-39.2485
 20
22.3629
 30
0.0
 10
-39.2485
 20
22.3629
 30
0.0
 10
-39.2485
 20
22.3629
 30
0.0
 10
-39.5759
 20
21.5444
 30
0.0
 10
-39.5759
 20
21.5444
 30
0.0
 10
-39.5759
 20
21.5444
 30
0.0
 10
-39.5759
 20
21.5444
 30
0.0
 10
-39.8761
 20
20.7258
 30
0.0
 10
-39.8761
 20
20.7258
 30
0.0
 10
-39.8761
 20
20.7258
 30
0.0
 10
-39.8761
 20
20.7258
 30
0.0
 10
-40.1216
 20
19.9073
 30
0.0
 10
-40.1216
 20
19.9073
 30
0.0
 10
-40.1216
 20
19.9073
 30
0.0
 10
-40.1216
 20
19.9073
 30
0.0
 10
-40.3399
 20
19.0615
 30
0.0
 10
-40.3399
 20
19.0615
 30
0.0
 10
-40.3399
 20
19.0615
 30
0.0
 10
-40.3399
 20
19.0615
 30
0.0
 10
-40.5308
 20
18.2157
 30
0.0
 10
-40.5308
 20
18.2157
 30
0.0
 10
-40.5308
 20
18.2157
 30
0.0
 10
-40.5308
 20
18.2157
 30
0.0
 10
-40.64
 20
17.3699
 30
0.0
 10
-40.64
 20
17.3699
 30
0.0
 10
-40.64
 20
17.3699
 30
0.0
 10
-40.64
 20
17.3699
 30
0.0
 10
-40.72190000000001
 20
16.4968
 30
0.0
 10
-40.72190000000001
 20
16.4968
 30
0.0
 10
-40.72190000000001
 20
16.4968
 30
0.0
 10
-40.72190000000001
 20
16.4968
 30
0.0
 10
-40.7764
 20
15.6237
 30
0.0
 10
-40.7764
 20
15.6237
 30
0.0
 10
-40.7764
 20
15.6237
 30
0.0
 10
-40.7764
 20
15.6237
 30
0.0
 10
-40.7764
 20
14.7506
 30
0.0
 10
-40.7764
 20
14.7506
 30
0.0
 10
-40.7764
 20
14.7506
 30
0.0
 10
-40.7764
 20
14.7506
 30
0.0
 10
-40.72190000000001
 20
13.9048
 30
0.0
 10
-40.72190000000001
 20
13.9048
 30
0.0
 10
-40.72190000000001
 20
13.9048
 30
0.0
 10
-40.72190000000001
 20
13.9048
 30
0.0
 10
-40.64
 20
13.0317
 30
0.0
 10
-40.64
 20
13.0317
 30
0.0
 10
-40.64
 20
13.0317
 30
0.0
 10
-40.64
 20
13.0317
 30
0.0
 10
-40.5308
 20
12.186
 30
0.0
 10
-40.5308
 20
12.186
 30
0.0
 10
-40.5308
 20
12.186
 30
0.0
 10
-40.5308
 20
12.186
 30
0.0
 10
-40.3399
 20
11.3129
 30
0.0
 10
-40.3399
 20
11.3129
 30
0.0
 10
-40.3399
 20
11.3129
 30
0.0
 10
-40.3399
 20
11.3129
 30
0.0
 10
-40.1216
 20
10.4944
 30
0.0
 10
-40.1216
 20
10.4944
 30
0.0
 10
-40.1216
 20
10.4944
 30
0.0
 10
-40.1216
 20
10.4944
 30
0.0
 10
-39.8761
 20
9.6485
 30
0.0
 10
-39.8761
 20
9.6485
 30
0.0
 10
-39.8761
 20
9.6485
 30
0.0
 10
-39.8761
 20
9.6485
 30
0.0
 10
-39.5759
 20
8.83
 30
0.0
 10
-39.5759
 20
8.83
 30
0.0
 10
-39.5759
 20
8.83
 30
0.0
 10
-39.5759
 20
8.83
 30
0.0
 10
-39.2485
 20
8.0388
 30
0.0
 10
-39.2485
 20
8.0388
 30
0.0
 10
-39.2485
 20
8.0388
 30
0.0
 10
-39.2485
 20
8.0388
 30
0.0
 10
-38.86660000000001
 20
7.247500000000001
 30
0.0
 10
-38.86660000000001
 20
7.247500000000001
 30
0.0
 10
-38.86660000000001
 20
7.247500000000001
 30
0.0
 10
-38.86660000000001
 20
7.247500000000001
 30
0.0
 10
-38.4573
 20
6.4835
 30
0.0
 10
-38.4573
 20
6.4835
 30
0.0
 10
-38.4573
 20
6.4835
 30
0.0
 10
-38.4573
 20
6.4835
 30
0.0
 10
-37.9935
 20
5.7469
 30
0.0
 10
-37.9935
 20
5.7469
 30
0.0
 10
-37.9935
 20
5.7469
 30
0.0
 10
-37.9935
 20
5.7469
 30
0.0
 10
-37.50230000000001
 20
5.037500000000001
 30
0.0
 10
-37.50230000000001
 20
5.037500000000001
 30
0.0
 10
-37.50230000000001
 20
5.037500000000001
 30
0.0
 10
-37.50230000000001
 20
5.037500000000001
 30
0.0
 10
-36.9839
 20
4.3554
 30
0.0
 10
-36.9839
 20
4.3554
 30
0.0
 10
-36.9839
 20
4.3554
 30
0.0
 10
-36.9839
 20
4.3554
 30
0.0
 10
-36.43830000000001
 20
3.6733
 30
0.0
 10
-36.43830000000001
 20
3.6733
 30
0.0
 10
-36.43830000000001
 20
3.6733
 30
0.0
 10
-36.43830000000001
 20
3.6733
 30
0.0
 10
-35.838
 20
3.0458
 30
0.0
 10
-35.838
 20
3.0458
 30
0.0
 10
-35.838
 20
3.0458
 30
0.0
 10
-35.838
 20
3.0458
 30
0.0
 10
-35.2105
 20
2.4455
 30
0.0
 10
-35.2105
 20
2.4455
 30
0.0
 10
-35.2105
 20
2.4455
 30
0.0
 10
-35.2105
 20
2.4455
 30
0.0
 10
-34.5557
 20
1.8726
 30
0.0
 10
-34.5557
 20
1.8726
 30
0.0
 10
-34.5557
 20
1.8726
 30
0.0
 10
-34.5557
 20
1.8726
 30
0.0
 10
-33.9008
 20
1.3269
 30
0.0
 10
-33.9008
 20
1.3269
 30
0.0
 10
-33.9008
 20
1.3269
 30
0.0
 10
-33.9008
 20
1.3269
 30
0.0
 10
-33.19150000000001
 20
0.8084
 30
0.0
 10
-33.19150000000001
 20
0.8084
 30
0.0
 10
-33.19150000000001
 20
0.8084
 30
0.0
 10
-33.19150000000001
 20
0.8084
 30
0.0
 10
-32.4548
 20
0.3446
 30
0.0
 10
-32.4548
 20
0.3446
 30
0.0
 10
-32.4548
 20
0.3446
 30
0.0
 10
-32.4548
 20
0.3446
 30
0.0
 10
-31.6908
 20
-0.0919
 30
0.0
 10
-31.6908
 20
-0.0919
 30
0.0
 10
-31.6908
 20
-0.0919
 30
0.0
 10
-31.6908
 20
-0.0919
 30
0.0
 10
-30.9269
 20
-0.4739
 30
0.0
 10
-30.9269
 20
-0.4739
 30
0.0
 10
-30.9269
 20
-0.4739
 30
0.0
 10
-30.9269
 20
-0.4739
 30
0.0
 10
-30.1356
 20
-0.8285
 30
0.0
 10
-30.1356
 20
-0.8285
 30
0.0
 10
-30.1356
 20
-0.8285
 30
0.0
 10
-30.1356
 20
-0.8285
 30
0.0
 10
-29.3444
 20
-1.156
 30
0.0
 10
-29.3444
 20
-1.156
 30
0.0
 10
-29.3444
 20
-1.156
 30
0.0
 10
-29.3444
 20
-1.156
 30
0.0
 10
-28.4986
 20
-1.4288
 30
0.0
 10
-28.4986
 20
-1.4288
 30
0.0
 10
-28.4986
 20
-1.4288
 30
0.0
 10
-28.4986
 20
-1.4288
 30
0.0
 10
-27.6801
 20
-1.6743
 30
0.0
 10
-27.6801
 20
-1.6743
 30
0.0
 10
-27.6801
 20
-1.6743
 30
0.0
 10
-27.6801
 20
-1.6743
 30
0.0
 10
-26.8343
 20
-1.8654
 30
0.0
 10
-26.8343
 20
-1.8654
 30
0.0
 10
-26.8343
 20
-1.8654
 30
0.0
 10
-26.8343
 20
-1.8654
 30
0.0
 10
-25.9885
 20
-2.0018
 30
0.0
 10
-25.9885
 20
-2.0018
 30
0.0
 10
-25.9885
 20
-2.0018
 30
0.0
 10
-25.9885
 20
-2.0018
 30
0.0
 10
-25.1154
 20
-2.1109
 30
0.0
 10
-25.1154
 20
-2.1109
 30
0.0
 10
-25.1154
 20
-2.1109
 30
0.0
 10
-25.1154
 20
-2.1109
 30
0.0
 10
-24.2423
 20
-2.1928
 30
0.0
 10
-24.2423
 20
-2.1928
 30
0.0
 10
-24.2423
 20
-2.1928
 30
0.0
 10
-24.2423
 20
-2.1928
 30
0.0
 10
-23.3692
 20
-2.2201
 30
0.0
 10
-23.3692
 20
-2.2201
 30
0.0
  0
SPLINE
  5
121
330
1F
100
AcDbEntity
  8
Ebene 1
370
    13
100
AcDbSpline
210
0.0
220
0.0
230
1.0
 70
    24
 71
     3
 72
     8
 73
     4
 74
     0
 42
0.0000000001
 43
0.0000000001
 40
0.0
 40
0.0
 40
0.0
 40
0.0
 40
1.0
 40
1.0
 40
1.0
 40
1.0
 10
-14.0927
 20
-3.3387
 30
0.0
 10
-14.0927
 20
-3.3387
 30
0.0
 10
-13.4378
 20
-3.3387
 30
0.0
 10
-13.4378
 20
-3.3387
 30
0.0
  0
SPLINE
  5
122
330
1F
100
AcDbEntity
  8
Ebene 1
370
    13
100
AcDbSpline
210
0.0
220
0.0
230
1.0
 70
    24
 71
     3
 72
     8
 73
     4
 74
     0
 42
0.0000000001
 43
0.0000000001
 40
0.0
 40
0.0
 40
0.0
 40
0.0
 40
1.0
 40
1.0
 40
1.0
 40
1.0
 10
-14.0927
 20
-2.0836
 30
0.0
 10
-14.0927
 20
-2.0836
 30
0.0
 10
-14.0927
 20
-3.3387
 30
0.0
 10
-14.0927
 20
-3.3387
 30
0.0
  0
SPLINE
  5
123
330
1F
100
AcDbEntity
  8
Ebene 1
370
    13
100
AcDbSpline
210
0.0
220
0.0
230
1.0
 70
    24
 71
     3
 72
     8
 73
     4
 74
     0
 42
0.0000000001
 43
0.0000000001
 40
0.0
 40
0.0
 40
0.0
 40
0.0
 40
1.0
 40
1.0
 40
1.0
 40
1.0
 10
-14.0927
 20
-2.0836
 30
0.0
 10
-14.0927
 20
-2.0836
 30
0.0
 10
-13.4378
 20
-2.0836
 30
0.0
 10
-13.4378
 20
-2.0836
 30
0.0
  0
SPLINE
  5
124
330
1F
100
AcDbEntity
  8
Ebene 1
370
    13
100
AcDbSpline
210
0.0
220
0.0
230
1.0
 70
     8
 71
     3
 72
    36
 73
    32
 74
     0
 42
0.0000000001
 43
0.0000000001
 40
0.0
 40
0.0
 40
0.0
 40
0.0
 40
0.125
 40
0.125
 40
0.125
 40
0.125
 40
0.25
 40
0.25
 40
0.25
 40
0.25
 40
0.375
 40
0.375
 40
0.375
 40
0.375
 40
0.5
 40
0.5
 40
0.5
 40
0.5
 40
0.625
 40
0.625
 40
0.625
 40
0.625
 40
0.75
 40
0.75
 40
0.75
 40
0.75
 40
0.875
 40
0.875
 40
0.875
 40
0.875
 40
1.0
 40
1.0
 40
1.0
 40
1.0
 10
-13.1923
 20
-2.3292
 30
0.0
 10
-13.1923
 20
-2.3292
 30
0.0
 10
-13.1923
 20
-2.2746
 30
0.0
 10
-13.1923
 20
-2.2746
 30
0.0
 10
-13.1923
 20
-2.2746
 30
0.0
 10
-13.1923
 20
-2.2746
 30
0.0
 10
-13.1923
 20
-2.2474
 30
0.0
 10
-13.1923
 20
-2.2474
 30
0.0
 10
-13.1923
 20
-2.2474
 30
0.0
 10
-13.1923
 20
-2.2474
 30
0.0
 10
-13.2196
 20
-2.1928
 30
0.0
 10
-13.2196
 20
-2.1928
 30
0.0
 10
-13.2196
 20
-2.1928
 30
0.0
 10
-13.2196
 20
-2.1928
 30
0.0
 10
-13.2469
 20
-2.1655
 30
0.0
 10
-13.2469
 20
-2.1655
 30
0.0
 10
-13.2469
 20
-2.1655
 30
0.0
 10
-13.2469
 20
-2.1655
 30
0.0
 10
-13.3014
 20
-2.1382
 30
0.0
 10
-13.3014
 20
-2.1382
 30
0.0
 10
-13.3014
 20
-2.1382
 30
0.0
 10
-13.3014
 20
-2.1382
 30
0.0
 10
-13.3287
 20
-2.1109
 30
0.0
 10
-13.3287
 20
-2.1109
 30
0.0
 10
-13.3287
 20
-2.1109
 30
0.0
 10
-13.3287
 20
-2.1109
 30
0.0
 10
-13.3832
 20
-2.0836
 30
0.0
 10
-13.3832
 20
-2.0836
 30
0.0
 10
-13.3832
 20
-2.0836
 30
0.0
 10
-13.3832
 20
-2.0836
 30
0.0
 10
-13.4378
 20
-2.0836
 30
0.0
 10
-13.4378
 20
-2.0836
 30
0.0
  0
SPLINE
  5
125
330
1F
100
AcDbEntity
  8
Ebene 1
370
    13
100
AcDbSpline
210
0.0
220
0.0
230
1.0
 70
    24
 71
     3
 72
     8
 73
     4
 74
     0
 42
0.0000000001
 43
0.0000000001
 40
0.0
 40
0.0
 40
0.0
 40
0.0
 40
1.0
 40
1.0
 40
1.0
 40
1.0
 10
-13.1923
 20
-2.3292
 30
0.0
 10
-13.1923
 20
-2.3292
 30
0.0
 10
-13.1923
 20
-3.0932
 30
0.0
 10
-13.1923
 20
-3.0932
 30
0.0
  0
SPLINE
  5
126
330
1F
100
AcDbEntity
  8
Ebene 1
370
    13
100
AcDbSpline
210
0.0
220
0.0
230
1.0
 70
     8
 71
     3
 72
    36
 73
    32
 74
     0
 42
0.0000000001
 43
0.0000000001
 40
0.0
 40
0.0
 40
0.0
 40
0.0
 40
0.125
 40
0.125
 40
0.125
 40
0.125
 40
0.25
 40
0.25
 40
0.25
 40
0.25
 40
0.375
 40
0.375
 40
0.375
 40
0.375
 40
0.5
 40
0.5
 40
0.5
 40
0.5
 40
0.625
 40
0.625
 40
0.625
 40
0.625
 40
0.75
 40
0.75
 40
0.75
 40
0.75
 40
0.875
 40
0.875
 40
0.875
 40
0.875
 40
1.0
 40
1.0
 40
1.0
 40
1.0
 10
-13.4378
 20
-3.3387
 30
0.0
 10
-13.4378
 20
-3.3387
 30
0.0
 10
-13.3832
 20
-3.3387
 30
0.0
 10
-13.3832
 20
-3.3387
 30
0.0
 10
-13.3832
 20
-3.3387
 30
0.0
 10
-13.3832
 20
-3.3387
 30
0.0
 10
-13.3287
 20
-3.3114
 30
0.0
 10
-13.3287
 20
-3.3114
 30
0.0
 10
-13.3287
 20
-3.3114
 30
0.0
 10
-13.3287
 20
-3.3114
 30
0.0
 10
-13.3014
 20
-3.3114
 30
0.0
 10
-13.3014
 20
-3.3114
 30
0.0
 10
-13.3014
 20
-3.3114
 30
0.0
 10
-13.3014
 20
-3.3114
 30
0.0
 10
-13.2469
 20
-3.2568
 30
0.0
 10
-13.2469
 20
-3.2568
 30
0.0
 10
-13.2469
 20
-3.2568
 30
0.0
 10
-13.2469
 20
-3.2568
 30
0.0
 10
-13.2196
 20
-3.2296
 30
0.0
 10
-13.2196
 20
-3.2296
 30
0.0
 10
-13.2196
 20
-3.2296
 30
0.0
 10
-13.2196
 20
-3.2296
 30
0.0
 10
-13.1923
 20
-3.175
 30
0.0
 10
-13.1923
 20
-3.175
 30
0.0
 10
-13.1923
 20
-3.175
 30
0.0
 10
-13.1923
 20
-3.175
 30
0.0
 10
-13.1923
 20
-3.1477
 30
0.0
 10
-13.1923
 20
-3.1477
 30
0.0
 10
-13.1923
 20
-3.1477
 30
0.0
 10
-13.1923
 20
-3.1477
 30
0.0
 10
-13.1923
 20
-3.0932
 30
0.0
 10
-13.1923
 20
-3.0932
 30
0.0
  0
SPLINE
  5
127
330
1F
100
AcDbEntity
  8
Ebene 1
370
    13
100
AcDbSpline
210
0.0
220
0.0
230
1.0
 70
     8
 71
     3
 72
    36
 73
    32
 74
     0
 42
0.0000000001
 43
0.0000000001
 40
0.0
 40
0.0
 40
0.0
 40
0.0
 40
0.125
 40
0.125
 40
0.125
 40
0.125
 40
0.25
 40
0.25
 40
0.25
 40
0.25
 40
0.375
 40
0.375
 40
0.375
 40
0.375
 40
0.5
 40
0.5
 40
0.5
 40
0.5
 40
0.625
 40
0.625
 40
0.625
 40
0.625
 40
0.75
 40
0.75
 40
0.75
 40
0.75
 40
0.875
 40
0.875
 40
0.875
 40
0.875
 40
1.0
 40
1.0
 40
1.0
 40
1.0
 10
-12.7558
 20
-2.0836
 30
0.0
 10
-12.7558
 20
-2.0836
 30
0.0
 10
-12.8103
 20
-2.0836
 30
0.0
 10
-12.8103
 20
-2.0836
 30
0.0
 10
-12.8103
 20
-2.0836
 30
0.0
 10
-12.8103
 20
-2.0836
 30
0.0
 10
-12.8376
 20
-2.1109
 30
0.0
 10
-12.8376
 20
-2.1109
 30
0.0
 10
-12.8376
 20
-2.1109
 30
0.0
 10
-12.8376
 20
-2.1109
 30
0.0
 10
-12.8921
 20
-2.1382
 30
0.0
 10
-12.8921
 20
-2.1382
 30
0.0
 10
-12.8921
 20
-2.1382
 30
0.0
 10
-12.8921
 20
-2.1382
 30
0.0
 10
-12.9194
 20
-2.1655
 30
0.0
 10
-12.9194
 20
-2.1655
 30
0.0
 10
-12.9194
 20
-2.1655
 30
0.0
 10
-12.9194
 20
-2.1655
 30
0.0
 10
-12.9467
 20
-2.1928
 30
0.0
 10
-12.9467
 20
-2.1928
 30
0.0
 10
-12.9467
 20
-2.1928
 30
0.0
 10
-12.9467
 20
-2.1928
 30
0.0
 10
-12.974
 20
-2.2474
 30
0.0
 10
-12.974
 20
-2.2474
 30
0.0
 10
-12.974
 20
-2.2474
 30
0.0
 10
-12.974
 20
-2.2474
 30
0.0
 10
-13.0013
 20
-2.2746
 30
0.0
 10
-13.0013
 20
-2.2746
 30
0.0
 10
-13.0013
 20
-2.2746
 30
0.0
 10
-13.0013
 20
-2.2746
 30
0.0
 10
-13.0013
 20
-2.3292
 30
0.0
 10
-13.0013
 20
-2.3292
 30
0.0
  0
SPLINE
  5
128
330
1F
100
AcDbEntity
  8
Ebene 1
370
    13
100
AcDbSpline
210
0.0
220
0.0
230
1.0
 70
    24
 71
     3
 72
     8
 73
     4
 74
     0
 42
0.0000000001
 43
0.0000000001
 40
0.0
 40
0.0
 40
0.0
 40
0.0
 40
1.0
 40
1.0
 40
1.0
 40
1.0
 10
-12.7558
 20
-2.0836
 30
0.0
 10
-12.7558
 20
-2.0836
 30
0.0
 10
-12.1827
 20
-2.0836
 30
0.0
 10
-12.1827
 20
-2.0836
 30
0.0
  0
SPLINE
  5
129
330
1F
100
AcDbEntity
  8
Ebene 1
370
    13
100
AcDbSpline
210
0.0
220
0.0
230
1.0
 70
     8
 71
     3
 72
    36
 73
    32
 74
     0
 42
0.0000000001
 43
0.0000000001
 40
0.0
 40
0.0
 40
0.0
 40
0.0
 40
0.125
 40
0.125
 40
0.125
 40
0.125
 40
0.25
 40
0.25
 40
0.25
 40
0.25
 40
0.375
 40
0.375
 40
0.375
 40
0.375
 40
0.5
 40
0.5
 40
0.5
 40
0.5
 40
0.625
 40
0.625
 40
0.625
 40
0.625
 40
0.75
 40
0.75
 40
0.75
 40
0.75
 40
0.875
 40
0.875
 40
0.875
 40
0.875
 40
1.0
 40
1.0
 40
1.0
 40
1.0
 10
-11.9099
 20
-2.3292
 30
0.0
 10
-11.9099
 20
-2.3292
 30
0.0
 10
-11.9372
 20
-2.2746
 30
0.0
 10
-11.9372
 20
-2.2746
 30
0.0
 10
-11.9372
 20
-2.2746
 30
0.0
 10
-11.9372
 20
-2.2746
 30
0.0
 10
-11.9372
 20
-2.2474
 30
0.0
 10
-11.9372
 20
-2.2474
 30
0.0
 10
-11.9372
 20
-2.2474
 30
0.0
 10
-11.9372
 20
-2.2474
 30
0.0
 10
-11.9645
 20
-2.1928
 30
0.0
 10
-11.9645
 20
-2.1928
 30
0.0
 10
-11.9645
 20
-2.1928
 30
0.0
 10
-11.9645
 20
-2.1928
 30
0.0
 10
-11.9918
 20
-2.1655
 30
0.0
 10
-11.9918
 20
-2.1655
 30
0.0
 10
-11.9918
 20
-2.1655
 30
0.0
 10
-11.9918
 20
-2.1655
 30
0.0
 10
-12.0191
 20
-2.1382
 30
0.0
 10
-12.0191
 20
-2.1382
 30
0.0
 10
-12.0191
 20
-2.1382
 30
0.0
 10
-12.0191
 20
-2.1382
 30
0.0
 10
-12.0736
 20
-2.1109
 30
0.0
 10
-12.0736
 20
-2.1109
 30
0.0
 10
-12.0736
 20
-2.1109
 30
0.0
 10
-12.0736
 20
-2.1109
 30
0.0
 10
-12.1282
 20
-2.0836
 30
0.0
 10
-12.1282
 20
-2.0836
 30
0.0
 10
-12.1282
 20
-2.0836
 30
0.0
 10
-12.1282
 20
-2.0836
 30
0.0
 10
-12.1827
 20
-2.0836
 30
0.0
 10
-12.1827
 20
-2.0836
 30
0.0
  0
SPLINE
  5
12A
330
1F
100
AcDbEntity
  8
Ebene 1
370
    13
100
AcDbSpline
210
0.0
220
0.0
230
1.0
 70
    24
 71
     3
 72
     8
 73
     4
 74
     0
 42
0.0000000001
 43
0.0000000001
 40
0.0
 40
0.0
 40
0.0
 40
0.0
 40
1.0
 40
1.0
 40
1.0
 40
1.0
 10
-11.9099
 20
-2.3292
 30
0.0
 10
-11.9099
 20
-2.3292
 30
0.0
 10
-11.9099
 20
-3.366
 30
0.0
 10
-11.9099
 20
-3.366
 30
0.0
  0
SPLINE
  5
12B
330
1F
100
AcDbEntity
  8
Ebene 1
370
    13
100
AcDbSpline
210
0.0
220
0.0
230
1.0
 70
    24
 71
     3
 72
     8
 73
     4
 74
     0
 42
0.0000000001
 43
0.0000000001
 40
0.0
 40
0.0
 40
0.0
 40
0.0
 40
1.0
 40
1.0
 40
1.0
 40
1.0
 10
-12.2919
 20
-3.366
 30
0.0
 10
-12.2919
 20
-3.366
 30
0.0
 10
-11.9099
 20
-3.366
 30
0.0
 10
-11.9099
 20
-3.366
 30
0.0
  0
SPLINE
  5
12C
330
1F
100
AcDbEntity
  8
Ebene 1
370
    13
100
AcDbSpline
210
0.0
220
0.0
230
1.0
 70
    24
 71
     3
 72
     8
 73
     4
 74
     0
 42
0.0000000001
 43
0.0000000001
 40
0.0
 40
0.0
 40
0.0
 40
0.0
 40
1.0
 40
1.0
 40
1.0
 40
1.0
 10
-12.2919
 20
-3.0113
 30
0.0
 10
-12.2919
 20
-3.0113
 30
0.0
 10
-12.2919
 20
-3.366
 30
0.0
 10
-12.2919
 20
-3.366
 30
0.0
  0
SPLINE
  5
12D
330
1F
100
AcDbEntity
  8
Ebene 1
370
    13
100
AcDbSpline
210
0.0
220
0.0
230
1.0
 70
    24
 71
     3
 72
     8
 73
     4
 74
     0
 42
0.0000000001
 43
0.0000000001
 40
0.0
 40
0.0
 40
0.0
 40
0.0
 40
1.0
 40
1.0
 40
1.0
 40
1.0
 10
-12.6465
 20
-3.0113
 30
0.0
 10
-12.6465
 20
-3.0113
 30
0.0
 10
-12.2919
 20
-3.0113
 30
0.0
 10
-12.2919
 20
-3.0113
 30
0.0
  0
SPLINE
  5
12E
330
1F
100
AcDbEntity
  8
Ebene 1
370
    13
100
AcDbSpline
210
0.0
220
0.0
230
1.0
 70
    24
 71
     3
 72
     8
 73
     4
 74
     0
 42
0.0000000001
 43
0.0000000001
 40
0.0
 40
0.0
 40
0.0
 40
0.0
 40
1.0
 40
1.0
 40
1.0
 40
1.0
 10
-12.6465
 20
-3.0113
 30
0.0
 10
-12.6465
 20
-3.0113
 30
0.0
 10
-12.6465
 20
-3.366
 30
0.0
 10
-12.6465
 20
-3.366
 30
0.0
  0
SPLINE
  5
12F
330
1F
100
AcDbEntity
  8
Ebene 1
370
    13
100
AcDbSpline
210
0.0
220
0.0
230
1.0
 70
    24
 71
     3
 72
     8
 73
     4
 74
     0
 42
0.0000000001
 43
0.0000000001
 40
0.0
 40
0.0
 40
0.0
 40
0.0
 40
1.0
 40
1.0
 40
1.0
 40
1.0
 10
-13.0013
 20
-3.366
 30
0.0
 10
-13.0013
 20
-3.366
 30
0.0
 10
-12.6465
 20
-3.366
 30
0.0
 10
-12.6465
 20
-3.366
 30
0.0
  0
SPLINE
  5
130
330
1F
100
AcDbEntity
  8
Ebene 1
370
    13
100
AcDbSpline
210
0.0
220
0.0
230
1.0
 70
    24
 71
     3
 72
     8
 73
     4
 74
     0
 42
0.0000000001
 43
0.0000000001
 40
0.0
 40
0.0
 40
0.0
 40
0.0
 40
1.0
 40
1.0
 40
1.0
 40
1.0
 10
-13.0013
 20
-2.3292
 30
0.0
 10
-13.0013
 20
-2.3292
 30
0.0
 10
-13.0013
 20
-3.366
 30
0.0
 10
-13.0013
 20
-3.366
 30
0.0
  0
SPLINE
  5
131
330
1F
100
AcDbEntity
  8
Ebene 1
370
    13
100
AcDbSpline
210
0.0
220
0.0
230
1.0
 70
    24
 71
     3
 72
     8
 73
     4
 74
     0
 42
0.0000000001
 43
0.0000000001
 40
0.0
 40
0.0
 40
0.0
 40
0.0
 40
1.0
 40
1.0
 40
1.0
 40
1.0
 10
-10.8458
 20
-2.0836
 30
0.0
 10
-10.8458
 20
-2.0836
 30
0.0
 10
-10.8458
 20
-3.366
 30
0.0
 10
-10.8458
 20
-3.366
 30
0.0
  0
SPLINE
  5
132
330
1F
100
AcDbEntity
  8
Ebene 1
370
    13
100
AcDbSpline
210
0.0
220
0.0
230
1.0
 70
    24
 71
     3
 72
     8
 73
     4
 74
     0
 42
0.0000000001
 43
0.0000000001
 40
0.0
 40
0.0
 40
0.0
 40
0.0
 40
1.0
 40
1.0
 40
1.0
 40
1.0
 10
-10.8458
 20
-2.0836
 30
0.0
 10
-10.8458
 20
-2.0836
 30
0.0
 10
-10.4911
 20
-2.0836
 30
0.0
 10
-10.4911
 20
-2.0836
 30
0.0
  0
SPLINE
  5
133
330
1F
100
AcDbEntity
  8
Ebene 1
370
    13
100
AcDbSpline
210
0.0
220
0.0
230
1.0
 70
    24
 71
     3
 72
     8
 73
     4
 74
     0
 42
0.0000000001
 43
0.0000000001
 40
0.0
 40
0.0
 40
0.0
 40
0.0
 40
1.0
 40
1.0
 40
1.0
 40
1.0
 10
-10.4911
 20
-2.0836
 30
0.0
 10
-10.4911
 20
-2.0836
 30
0.0
 10
-10.4911
 20
-3.0113
 30
0.0
 10
-10.4911
 20
-3.0113
 30
0.0
  0
SPLINE
  5
134
330
1F
100
AcDbEntity
  8
Ebene 1
370
    13
100
AcDbSpline
210
0.0
220
0.0
230
1.0
 70
    24
 71
     3
 72
     8
 73
     4
 74
     0
 42
0.0000000001
 43
0.0000000001
 40
0.0
 40
0.0
 40
0.0
 40
0.0
 40
1.0
 40
1.0
 40
1.0
 40
1.0
 10
-10.4911
 20
-3.0113
 30
0.0
 10
-10.4911
 20
-3.0113
 30
0.0
 10
-10.1092
 20
-3.0113
 30
0.0
 10
-10.1092
 20
-3.0113
 30
0.0
  0
SPLINE
  5
135
330
1F
100
AcDbEntity
  8
Ebene 1
370
    13
100
AcDbSpline
210
0.0
220
0.0
230
1.0
 70
    24
 71
     3
 72
     8
 73
     4
 74
     0
 42
0.0000000001
 43
0.0000000001
 40
0.0
 40
0.0
 40
0.0
 40
0.0
 40
1.0
 40
1.0
 40
1.0
 40
1.0
 10
-10.1092
 20
-3.0113
 30
0.0
 10
-10.1092
 20
-3.0113
 30
0.0
 10
-10.1092
 20
-3.366
 30
0.0
 10
-10.1092
 20
-3.366
 30
0.0
  0
SPLINE
  5
136
330
1F
100
AcDbEntity
  8
Ebene 1
370
    13
100
AcDbSpline
210
0.0
220
0.0
230
1.0
 70
    24
 71
     3
 72
     8
 73
     4
 74
     0
 42
0.0000000001
 43
0.0000000001
 40
0.0
 40
0.0
 40
0.0
 40
0.0
 40
1.0
 40
1.0
 40
1.0
 40
1.0
 10
-10.8458
 20
-3.366
 30
0.0
 10
-10.8458
 20
-3.366
 30
0.0
 10
-10.1092
 20
-3.366
 30
0.0
 10
-10.1092
 20
-3.366
 30
0.0
  0
SPLINE
  5
137
330
1F
100
AcDbEntity
  8
Ebene 1
370
    13
100
AcDbSpline
210
0.0
220
0.0
230
1.0
 70
    24
 71
     3
 72
     8
 73
     4
 74
     0
 42
0.0000000001
 43
0.0000000001
 40
0.0
 40
0.0
 40
0.0
 40
0.0
 40
1.0
 40
1.0
 40
1.0
 40
1.0
 10
-8.1447
 20
-2.0836
 30
0.0
 10
-8.1447
 20
-2.0836
 30
0.0
 10
-8.1447
 20
-3.366
 30
0.0
 10
-8.1447
 20
-3.366
 30
0.0
  0
SPLINE
  5
138
330
1F
100
AcDbEntity
  8
Ebene 1
370
    13
100
AcDbSpline
210
0.0
220
0.0
230
1.0
 70
    24
 71
     3
 72
     8
 73
     4
 74
     0
 42
0.0000000001
 43
0.0000000001
 40
0.0
 40
0.0
 40
0.0
 40
0.0
 40
1.0
 40
1.0
 40
1.0
 40
1.0
 10
-8.1447
 20
-2.0836
 30
0.0
 10
-8.1447
 20
-2.0836
 30
0.0
 10
-7.2443
 20
-2.0836
 30
0.0
 10
-7.2443
 20
-2.0836
 30
0.0
  0
SPLINE
  5
139
330
1F
100
AcDbEntity
  8
Ebene 1
370
    13
100
AcDbSpline
210
0.0
220
0.0
230
1.0
 70
    24
 71
     3
 72
     8
 73
     4
 74
     0
 42
0.0000000001
 43
0.0000000001
 40
0.0
 40
0.0
 40
0.0
 40
0.0
 40
1.0
 40
1.0
 40
1.0
 40
1.0
 10
-7.2443
 20
-2.0836
 30
0.0
 10
-7.2443
 20
-2.0836
 30
0.0
 10
-7.2443
 20
-2.3838
 30
0.0
 10
-7.2443
 20
-2.3838
 30
0.0
  0
SPLINE
  5
13A
330
1F
100
AcDbEntity
  8
Ebene 1
370
    13
100
AcDbSpline
210
0.0
220
0.0
230
1.0
 70
    24
 71
     3
 72
     8
 73
     4
 74
     0
 42
0.0000000001
 43
0.0000000001
 40
0.0
 40
0.0
 40
0.0
 40
0.0
 40
1.0
 40
1.0
 40
1.0
 40
1.0
 10
-7.79
 20
-2.3838
 30
0.0
 10
-7.79
 20
-2.3838
 30
0.0
 10
-7.2443
 20
-2.3838
 30
0.0
 10
-7.2443
 20
-2.3838
 30
0.0
  0
SPLINE
  5
13B
330
1F
100
AcDbEntity
  8
Ebene 1
370
    13
100
AcDbSpline
210
0.0
220
0.0
230
1.0
 70
    24
 71
     3
 72
     8
 73
     4
 74
     0
 42
0.0000000001
 43
0.0000000001
 40
0.0
 40
0.0
 40
0.0
 40
0.0
 40
1.0
 40
1.0
 40
1.0
 40
1.0
 10
-7.79
 20
-2.3838
 30
0.0
 10
-7.79
 20
-2.3838
 30
0.0
 10
-7.79
 20
-2.5747
 30
0.0
 10
-7.79
 20
-2.5747
 30
0.0
  0
SPLINE
  5
13C
330
1F
100
AcDbEntity
  8
Ebene 1
370
    13
100
AcDbSpline
210
0.0
220
0.0
230
1.0
 70
    24
 71
     3
 72
     8
 73
     4
 74
     0
 42
0.0000000001
 43
0.0000000001
 40
0.0
 40
0.0
 40
0.0
 40
0.0
 40
1.0
 40
1.0
 40
1.0
 40
1.0
 10
-7.2443
 20
-2.5747
 30
0.0
 10
-7.2443
 20
-2.5747
 30
0.0
 10
-7.79
 20
-2.5747
 30
0.0
 10
-7.79
 20
-2.5747
 30
0.0
  0
SPLINE
  5
13D
330
1F
100
AcDbEntity
  8
Ebene 1
370
    13
100
AcDbSpline
210
0.0
220
0.0
230
1.0
 70
    24
 71
     3
 72
     8
 73
     4
 74
     0
 42
0.0000000001
 43
0.0000000001
 40
0.0
 40
0.0
 40
0.0
 40
0.0
 40
1.0
 40
1.0
 40
1.0
 40
1.0
 10
-7.2443
 20
-2.5747
 30
0.0
 10
-7.2443
 20
-2.5747
 30
0.0
 10
-7.2443
 20
-2.8749
 30
0.0
 10
-7.2443
 20
-2.8749
 30
0.0
  0
SPLINE
  5
13E
330
1F
100
AcDbEntity
  8
Ebene 1
370
    13
100
AcDbSpline
210
0.0
220
0.0
230
1.0
 70
    24
 71
     3
 72
     8
 73
     4
 74
     0
 42
0.0000000001
 43
0.0000000001
 40
0.0
 40
0.0
 40
0.0
 40
0.0
 40
1.0
 40
1.0
 40
1.0
 40
1.0
 10
-7.2443
 20
-2.8749
 30
0.0
 10
-7.2443
 20
-2.8749
 30
0.0
 10
-7.79
 20
-2.8749
 30
0.0
 10
-7.79
 20
-2.8749
 30
0.0
  0
SPLINE
  5
13F
330
1F
100
AcDbEntity
  8
Ebene 1
370
    13
100
AcDbSpline
210
0.0
220
0.0
230
1.0
 70
    24
 71
     3
 72
     8
 73
     4
 74
     0
 42
0.0000000001
 43
0.0000000001
 40
0.0
 40
0.0
 40
0.0
 40
0.0
 40
1.0
 40
1.0
 40
1.0
 40
1.0
 10
-7.79
 20
-2.8749
 30
0.0
 10
-7.79
 20
-2.8749
 30
0.0
 10
-7.79
 20
-3.0659
 30
0.0
 10
-7.79
 20
-3.0659
 30
0.0
  0
SPLINE
  5
140
330
1F
100
AcDbEntity
  8
Ebene 1
370
    13
100
AcDbSpline
210
0.0
220
0.0
230
1.0
 70
    24
 71
     3
 72
     8
 73
     4
 74
     0
 42
0.0000000001
 43
0.0000000001
 40
0.0
 40
0.0
 40
0.0
 40
0.0
 40
1.0
 40
1.0
 40
1.0
 40
1.0
 10
-7.79
 20
-3.0659
 30
0.0
 10
-7.79
 20
-3.0659
 30
0.0
 10
-7.2443
 20
-3.0659
 30
0.0
 10
-7.2443
 20
-3.0659
 30
0.0
  0
SPLINE
  5
141
330
1F
100
AcDbEntity
  8
Ebene 1
370
    13
100
AcDbSpline
210
0.0
220
0.0
230
1.0
 70
    24
 71
     3
 72
     8
 73
     4
 74
     0
 42
0.0000000001
 43
0.0000000001
 40
0.0
 40
0.0
 40
0.0
 40
0.0
 40
1.0
 40
1.0
 40
1.0
 40
1.0
 10
-7.2443
 20
-3.0659
 30
0.0
 10
-7.2443
 20
-3.0659
 30
0.0
 10
-7.2443
 20
-3.366
 30
0.0
 10
-7.2443
 20
-3.366
 30
0.0
  0
SPLINE
  5
142
330
1F
100
AcDbEntity
  8
Ebene 1
370
    13
100
AcDbSpline
210
0.0
220
0.0
230
1.0
 70
    24
 71
     3
 72
     8
 73
     4
 74
     0
 42
0.0000000001
 43
0.0000000001
 40
0.0
 40
0.0
 40
0.0
 40
0.0
 40
1.0
 40
1.0
 40
1.0
 40
1.0
 10
-8.1447
 20
-3.366
 30
0.0
 10
-8.1447
 20
-3.366
 30
0.0
 10
-7.2443
 20
-3.366
 30
0.0
 10
-7.2443
 20
-3.366
 30
0.0
  0
SPLINE
  5
143
330
1F
100
AcDbEntity
  8
Ebene 1
370
    13
100
AcDbSpline
210
0.0
220
0.0
230
1.0
 70
     8
 71
     3
 72
    36
 73
    32
 74
     0
 42
0.0000000001
 43
0.0000000001
 40
0.0
 40
0.0
 40
0.0
 40
0.0
 40
0.125
 40
0.125
 40
0.125
 40
0.125
 40
0.25
 40
0.25
 40
0.25
 40
0.25
 40
0.375
 40
0.375
 40
0.375
 40
0.375
 40
0.5
 40
0.5
 40
0.5
 40
0.5
 40
0.625
 40
0.625
 40
0.625
 40
0.625
 40
0.75
 40
0.75
 40
0.75
 40
0.75
 40
0.875
 40
0.875
 40
0.875
 40
0.875
 40
1.0
 40
1.0
 40
1.0
 40
1.0
 10
-5.9893
 20
-2.3292
 30
0.0
 10
-5.9893
 20
-2.3292
 30
0.0
 10
-5.9893
 20
-2.2746
 30
0.0
 10
-5.9893
 20
-2.2746
 30
0.0
 10
-5.9893
 20
-2.2746
 30
0.0
 10
-5.9893
 20
-2.2746
 30
0.0
 10
-5.9893
 20
-2.2474
 30
0.0
 10
-5.9893
 20
-2.2474
 30
0.0
 10
-5.9893
 20
-2.2474
 30
0.0
 10
-5.9893
 20
-2.2474
 30
0.0
 10
-6.016500000000001
 20
-2.1928
 30
0.0
 10
-6.016500000000001
 20
-2.1928
 30
0.0
 10
-6.016500000000001
 20
-2.1928
 30
0.0
 10
-6.016500000000001
 20
-2.1928
 30
0.0
 10
-6.0438
 20
-2.1655
 30
0.0
 10
-6.0438
 20
-2.1655
 30
0.0
 10
-6.0438
 20
-2.1655
 30
0.0
 10
-6.0438
 20
-2.1655
 30
0.0
 10
-6.098400000000001
 20
-2.1382
 30
0.0
 10
-6.098400000000001
 20
-2.1382
 30
0.0
 10
-6.098400000000001
 20
-2.1382
 30
0.0
 10
-6.098400000000001
 20
-2.1382
 30
0.0
 10
-6.1257
 20
-2.1109
 30
0.0
 10
-6.1257
 20
-2.1109
 30
0.0
 10
-6.1257
 20
-2.1109
 30
0.0
 10
-6.1257
 20
-2.1109
 30
0.0
 10
-6.1803
 20
-2.0836
 30
0.0
 10
-6.1803
 20
-2.0836
 30
0.0
 10
-6.1803
 20
-2.0836
 30
0.0
 10
-6.1803
 20
-2.0836
 30
0.0
 10
-6.234900000000001
 20
-2.0836
 30
0.0
 10
-6.234900000000001
 20
-2.0836
 30
0.0
  0
SPLINE
  5
144
330
1F
100
AcDbEntity
  8
Ebene 1
370
    13
100
AcDbSpline
210
0.0
220
0.0
230
1.0
 70
    24
 71
     3
 72
     8
 73
     4
 74
     0
 42
0.0000000001
 43
0.0000000001
 40
0.0
 40
0.0
 40
0.0
 40
0.0
 40
1.0
 40
1.0
 40
1.0
 40
1.0
 10
-5.9893
 20
-2.3292
 30
0.0
 10
-5.9893
 20
-2.3292
 30
0.0
 10
-5.9893
 20
-2.6566
 30
0.0
 10
-5.9893
 20
-2.6566
 30
0.0
  0
SPLINE
  5
145
330
1F
100
AcDbEntity
  8
Ebene 1
370
    13
100
AcDbSpline
210
0.0
220
0.0
230
1.0
 70
     8
 71
     3
 72
    32
 73
    28
 74
     0
 42
0.0000000001
 43
0.0000000001
 40
0.0
 40
0.0
 40
0.0
 40
0.0
 40
0.1428571428571429
 40
0.1428571428571429
 40
0.1428571428571429
 40
0.1428571428571429
 40
0.2857142857142857
 40
0.2857142857142857
 40
0.2857142857142857
 40
0.2857142857142857
 40
0.4285714285714286
 40
0.4285714285714286
 40
0.4285714285714286
 40
0.4285714285714286
 40
0.5714285714285714
 40
0.5714285714285714
 40
0.5714285714285714
 40
0.5714285714285714
 40
0.7142857142857142
 40
0.7142857142857142
 40
0.7142857142857142
 40
0.7142857142857142
 40
0.857142857142857
 40
0.857142857142857
 40
0.857142857142857
 40
0.857142857142857
 40
1.0
 40
1.0
 40
1.0
 40
1.0
 10
-6.0438
 20
-2.8203
 30
0.0
 10
-6.0438
 20
-2.8203
 30
0.0
 10
-6.0438
 20
-2.8203
 30
0.0
 10
-6.0438
 20
-2.8203
 30
0.0
 10
-6.0438
 20
-2.8203
 30
0.0
 10
-6.0438
 20
-2.8203
 30
0.0
 10
-6.016500000000001
 20
-2.793
 30
0.0
 10
-6.016500000000001
 20
-2.793
 30
0.0
 10
-6.016500000000001
 20
-2.793
 30
0.0
 10
-6.016500000000001
 20
-2.793
 30
0.0
 10
-6.016500000000001
 20
-2.7657
 30
0.0
 10
-6.016500000000001
 20
-2.7657
 30
0.0
 10
-6.016500000000001
 20
-2.7657
 30
0.0
 10
-6.016500000000001
 20
-2.7657
 30
0.0
 10
-5.9893
 20
-2.7385
 30
0.0
 10
-5.9893
 20
-2.7385
 30
0.0
 10
-5.9893
 20
-2.7385
 30
0.0
 10
-5.9893
 20
-2.7385
 30
0.0
 10
-5.9893
 20
-2.7112
 30
0.0
 10
-5.9893
 20
-2.7112
 30
0.0
 10
-5.9893
 20
-2.7112
 30
0.0
 10
-5.9893
 20
-2.7112
 30
0.0
 10
-5.9893
 20
-2.6839
 30
0.0
 10
-5.9893
 20
-2.6839
 30
0.0
 10
-5.9893
 20
-2.6839
 30
0.0
 10
-5.9893
 20
-2.6839
 30
0.0
 10
-5.9893
 20
-2.6566
 30
0.0
 10
-5.9893
 20
-2.6566
 30
0.0
  0
SPLINE
  5
146
330
1F
100
AcDbEntity
  8
Ebene 1
370
    13
100
AcDbSpline
210
0.0
220
0.0
230
1.0
 70
     8
 71
     3
 72
    32
 73
    28
 74
     0
 42
0.0000000001
 43
0.0000000001
 40
0.0
 40
0.0
 40
0.0
 40
0.0
 40
0.1428571428571429
 40
0.1428571428571429
 40
0.1428571428571429
 40
0.1428571428571429
 40
0.2857142857142857
 40
0.2857142857142857
 40
0.2857142857142857
 40
0.2857142857142857
 40
0.4285714285714286
 40
0.4285714285714286
 40
0.4285714285714286
 40
0.4285714285714286
 40
0.5714285714285714
 40
0.5714285714285714
 40
0.5714285714285714
 40
0.5714285714285714
 40
0.7142857142857142
 40
0.7142857142857142
 40
0.7142857142857142
 40
0.7142857142857142
 40
0.857142857142857
 40
0.857142857142857
 40
0.857142857142857
 40
0.857142857142857
 40
1.0
 40
1.0
 40
1.0
 40
1.0
 10
-5.9893
 20
-3.0113
 30
0.0
 10
-5.9893
 20
-3.0113
 30
0.0
 10
-5.9893
 20
-2.984
 30
0.0
 10
-5.9893
 20
-2.984
 30
0.0
 10
-5.9893
 20
-2.984
 30
0.0
 10
-5.9893
 20
-2.984
 30
0.0
 10
-5.9893
 20
-2.9567
 30
0.0
 10
-5.9893
 20
-2.9567
 30
0.0
 10
-5.9893
 20
-2.9567
 30
0.0
 10
-5.9893
 20
-2.9567
 30
0.0
 10
-5.9893
 20
-2.9294
 30
0.0
 10
-5.9893
 20
-2.9294
 30
0.0
 10
-5.9893
 20
-2.9294
 30
0.0
 10
-5.9893
 20
-2.9294
 30
0.0
 10
-5.9893
 20
-2.9021
 30
0.0
 10
-5.9893
 20
-2.9021
 30
0.0
 10
-5.9893
 20
-2.9021
 30
0.0
 10
-5.9893
 20
-2.9021
 30
0.0
 10
-6.016500000000001
 20
-2.8749
 30
0.0
 10
-6.016500000000001
 20
-2.8749
 30
0.0
 10
-6.016500000000001
 20
-2.8749
 30
0.0
 10
-6.016500000000001
 20
-2.8749
 30
0.0
 10
-6.0438
 20
-2.8476
 30
0.0
 10
-6.0438
 20
-2.8476
 30
0.0
 10
-6.0438
 20
-2.8476
 30
0.0
 10
-6.0438
 20
-2.8476
 30
0.0
 10
-6.0438
 20
-2.8203
 30
0.0
 10
-6.0438
 20
-2.8203
 30
0.0
  0
SPLINE
  5
147
330
1F
100
AcDbEntity
  8
Ebene 1
370
    13
100
AcDbSpline
210
0.0
220
0.0
230
1.0
 70
    24
 71
     3
 72
     8
 73
     4
 74
     0
 42
0.0000000001
 43
0.0000000001
 40
0.0
 40
0.0
 40
0.0
 40
0.0
 40
1.0
 40
1.0
 40
1.0
 40
1.0
 10
-5.9893
 20
-3.0113
 30
0.0
 10
-5.9893
 20
-3.0113
 30
0.0
 10
-5.9893
 20
-3.366
 30
0.0
 10
-5.9893
 20
-3.366
 30
0.0
  0
SPLINE
  5
148
330
1F
100
AcDbEntity
  8
Ebene 1
370
    13
100
AcDbSpline
210
0.0
220
0.0
230
1.0
 70
    24
 71
     3
 72
     8
 73
     4
 74
     0
 42
0.0000000001
 43
0.0000000001
 40
0.0
 40
0.0
 40
0.0
 40
0.0
 40
1.0
 40
1.0
 40
1.0
 40
1.0
 10
-6.344
 20
-3.366
 30
0.0
 10
-6.344
 20
-3.366
 30
0.0
 10
-5.9893
 20
-3.366
 30
0.0
 10
-5.9893
 20
-3.366
 30
0.0
  0
SPLINE
  5
149
330
1F
100
AcDbEntity
  8
Ebene 1
370
    13
100
AcDbSpline
210
0.0
220
0.0
230
1.0
 70
    24
 71
     3
 72
     8
 73
     4
 74
     0
 42
0.0000000001
 43
0.0000000001
 40
0.0
 40
0.0
 40
0.0
 40
0.0
 40
1.0
 40
1.0
 40
1.0
 40
1.0
 10
-6.344
 20
-3.0932
 30
0.0
 10
-6.344
 20
-3.0932
 30
0.0
 10
-6.344
 20
-3.366
 30
0.0
 10
-6.344
 20
-3.366
 30
0.0
  0
SPLINE
  5
14A
330
1F
100
AcDbEntity
  8
Ebene 1
370
    13
100
AcDbSpline
210
0.0
220
0.0
230
1.0
 70
     8
 71
     3
 72
    28
 73
    24
 74
     0
 42
0.0000000001
 43
0.0000000001
 40
0.0
 40
0.0
 40
0.0
 40
0.0
 40
0.1666666666666667
 40
0.1666666666666667
 40
0.1666666666666667
 40
0.1666666666666667
 40
0.3333333333333333
 40
0.3333333333333333
 40
0.3333333333333333
 40
0.3333333333333333
 40
0.5
 40
0.5
 40
0.5
 40
0.5
 40
0.6666666666666666
 40
0.6666666666666666
 40
0.6666666666666666
 40
0.6666666666666666
 40
0.8333333333333333
 40
0.8333333333333333
 40
0.8333333333333333
 40
0.8333333333333333
 40
1.0
 40
1.0
 40
1.0
 40
1.0
 10
-6.344
 20
-3.0932
 30
0.0
 10
-6.344
 20
-3.0932
 30
0.0
 10
-6.344
 20
-3.0659
 30
0.0
 10
-6.344
 20
-3.0659
 30
0.0
 10
-6.344
 20
-3.0659
 30
0.0
 10
-6.344
 20
-3.0659
 30
0.0
 10
-6.344
 20
-3.0386
 30
0.0
 10
-6.344
 20
-3.0386
 30
0.0
 10
-6.344
 20
-3.0386
 30
0.0
 10
-6.344
 20
-3.0386
 30
0.0
 10
-6.371300000000001
 20
-3.0386
 30
0.0
 10
-6.371300000000001
 20
-3.0386
 30
0.0
 10
-6.371300000000001
 20
-3.0386
 30
0.0
 10
-6.371300000000001
 20
-3.0386
 30
0.0
 10
-6.371300000000001
 20
-3.0113
 30
0.0
 10
-6.371300000000001
 20
-3.0113
 30
0.0
 10
-6.371300000000001
 20
-3.0113
 30
0.0
 10
-6.371300000000001
 20
-3.0113
 30
0.0
 10
-6.3985
 20
-3.0113
 30
0.0
 10
-6.3985
 20
-3.0113
 30
0.0
 10
-6.3985
 20
-3.0113
 30
0.0
 10
-6.3985
 20
-3.0113
 30
0.0
 10
-6.425800000000001
 20
-3.0113
 30
0.0
 10
-6.425800000000001
 20
-3.0113
 30
0.0
  0
SPLINE
  5
14B
330
1F
100
AcDbEntity
  8
Ebene 1
370
    13
100
AcDbSpline
210
0.0
220
0.0
230
1.0
 70
    24
 71
     3
 72
     8
 73
     4
 74
     0
 42
0.0000000001
 43
0.0000000001
 40
0.0
 40
0.0
 40
0.0
 40
0.0
 40
1.0
 40
1.0
 40
1.0
 40
1.0
 10
-6.698700000000001
 20
-3.0113
 30
0.0
 10
-6.698700000000001
 20
-3.0113
 30
0.0
 10
-6.425800000000001
 20
-3.0113
 30
0.0
 10
-6.425800000000001
 20
-3.0113
 30
0.0
  0
SPLINE
  5
14C
330
1F
100
AcDbEntity
  8
Ebene 1
370
    13
100
AcDbSpline
210
0.0
220
0.0
230
1.0
 70
    24
 71
     3
 72
     8
 73
     4
 74
     0
 42
0.0000000001
 43
0.0000000001
 40
0.0
 40
0.0
 40
0.0
 40
0.0
 40
1.0
 40
1.0
 40
1.0
 40
1.0
 10
-6.698700000000001
 20
-3.0113
 30
0.0
 10
-6.698700000000001
 20
-3.0113
 30
0.0
 10
-6.698700000000001
 20
-3.366
 30
0.0
 10
-6.698700000000001
 20
-3.366
 30
0.0
  0
SPLINE
  5
14D
330
1F
100
AcDbEntity
  8
Ebene 1
370
    13
100
AcDbSpline
210
0.0
220
0.0
230
1.0
 70
    24
 71
     3
 72
     8
 73
     4
 74
     0
 42
0.0000000001
 43
0.0000000001
 40
0.0
 40
0.0
 40
0.0
 40
0.0
 40
1.0
 40
1.0
 40
1.0
 40
1.0
 10
-7.053400000000001
 20
-3.366
 30
0.0
 10
-7.053400000000001
 20
-3.366
 30
0.0
 10
-6.698700000000001
 20
-3.366
 30
0.0
 10
-6.698700000000001
 20
-3.366
 30
0.0
  0
SPLINE
  5
14E
330
1F
100
AcDbEntity
  8
Ebene 1
370
    13
100
AcDbSpline
210
0.0
220
0.0
230
1.0
 70
    24
 71
     3
 72
     8
 73
     4
 74
     0
 42
0.0000000001
 43
0.0000000001
 40
0.0
 40
0.0
 40
0.0
 40
0.0
 40
1.0
 40
1.0
 40
1.0
 40
1.0
 10
-7.053400000000001
 20
-2.0836
 30
0.0
 10
-7.053400000000001
 20
-2.0836
 30
0.0
 10
-7.053400000000001
 20
-3.366
 30
0.0
 10
-7.053400000000001
 20
-3.366
 30
0.0
  0
SPLINE
  5
14F
330
1F
100
AcDbEntity
  8
Ebene 1
370
    13
100
AcDbSpline
210
0.0
220
0.0
230
1.0
 70
    24
 71
     3
 72
     8
 73
     4
 74
     0
 42
0.0000000001
 43
0.0000000001
 40
0.0
 40
0.0
 40
0.0
 40
0.0
 40
1.0
 40
1.0
 40
1.0
 40
1.0
 10
-7.053400000000001
 20
-2.0836
 30
0.0
 10
-7.053400000000001
 20
-2.0836
 30
0.0
 10
-6.234900000000001
 20
-2.0836
 30
0.0
 10
-6.234900000000001
 20
-2.0836
 30
0.0
  0
LWPOLYLINE
  5
150
330
1F
100
AcDbEntity
  8
Ebene 1
 62
   250
370
     0
100
AcDbPolyline
 90
        5
 70
     1
 43
0.0
 10
-33.2456
 20
51.6651
 10
-28.2456
 20
51.6651
 10
-28.2456
 20
56.6651
 10
-33.2456
 20
56.6651
 10
-33.2456
 20
51.6651
  0
ENDSEC
  0
SECTION
  2
OBJECTS
  0
DICTIONARY
  5
C
330
0
100
AcDbDictionary
281
     1
  3
ACAD_GROUP
350
D
  3
ACAD_LAYOUT
350
1A
  3
ACAD_MLINESTYLE
350
17
  3
ACAD_PLOTSETTINGS
350
19
  3
ACAD_PLOTSTYLENAME
350
E
  0
DICTIONARY
  5
D
102
{ACAD_REACTORS
330
C
102
}
330
C
100
AcDbDictionary
281
     1
  0
DICTIONARY
  5
1A
102
{ACAD_REACTORS
330
C
102
}
330
C
100
AcDbDictionary
281
     1
  3
Layout1
350
1E
  3
Layout2
350
26
  3
Model
350
22
  0
DICTIONARY
  5
17
102
{ACAD_REACTORS
330
C
102
}
330
C
100
AcDbDictionary
281
     1
  3
Standard
350
18
  0
DICTIONARY
  5
19
102
{ACAD_REACTORS
330
C
102
}
330
C
100
AcDbDictionary
281
     1
  0
ACDBDICTIONARYWDFLT
  5
E
102
{ACAD_REACTORS
330
C
102
}
330
C
100
AcDbDictionary
281
     1
  3
Normal
350
F
100
AcDbDictionaryWithDefault
340
F
  0
LAYOUT
  5
1E
102
{ACAD_REACTORS
330
1A
102
}
330
1A
100
AcDbPlotSettings
  1

  2

  4

  6

 40
0.0
 41
0.0
 42
0.0
 43
0.0
 44
0.0
 45
0.0
 46
0.0
 47
0.0
 48
0.0
 49
0.0
140
0.0
141
0.0
142
1.0
143
1.0
 70
   688
 72
     0
 73
     0
 74
     5
  7

 75
    16
 76
     0
 77
     2
 78
   300
147
1.0
148
0.0
149
0.0
100
AcDbLayout
  1
Layout1
 70
     1
 71
     1
 10
0.0
 20
0.0
 11
12.0
 21
9.0
 12
0.0
 22
0.0
 32
0.0
 14
1.000000000000000E+20
 24
1.000000000000000E+20
 34
1.000000000000000E+20
 15
-1.000000000000000E+20
 25
-1.000000000000000E+20
 35
-1.000000000000000E+20
146
0.0
 13
0.0
 23
0.0
 33
0.0
 16
1.0
 26
0.0
 36
0.0
 17
0.0
 27
1.0
 37
0.0
 76
     0
330
1B
  0
LAYOUT
  5
26
102
{ACAD_REACTORS
330
1A
102
}
330
1A
100
AcDbPlotSettings
  1

  2

  4

  6

 40
0.0
 41
0.0
 42
0.0
 43
0.0
 44
0.0
 45
0.0
 46
0.0
 47
0.0
 48
0.0
 49
0.0
140
0.0
141
0.0
142
1.0
143
1.0
 70
   688
 72
     0
 73
     0
 74
     5
  7

 75
    16
 76
     0
 77
     2
 78
   300
147
1.0
148
0.0
149
0.0
100
AcDbLayout
  1
Layout2
 70
     1
 71
     2
 10
0.0
 20
0.0
 11
0.0
 21
0.0
 12
0.0
 22
0.0
 32
0.0
 14
0.0
 24
0.0
 34
0.0
 15
0.0
 25
0.0
 35
0.0
146
0.0
 13
0.0
 23
0.0
 33
0.0
 16
1.0
 26
0.0
 36
0.0
 17
0.0
 27
1.0
 37
0.0
 76
     0
330
23
  0
LAYOUT
  5
22
102
{ACAD_REACTORS
330
1A
102
}
330
1A
100
AcDbPlotSettings
  1

  2

  4

  6

 40
0.0
 41
0.0
 42
0.0
 43
0.0
 44
0.0
 45
0.0
 46
0.0
 47
0.0
 48
0.0
 49
0.0
140
0.0
141
0.0
142
1.0
143
1.0
 70
  1712
 72
     0
 73
     0
 74
     0
  7

 75
     0
 76
     0
 77
     2
 78
   300
147
1.0
148
0.0
149
0.0
100
AcDbLayout
  1
Model
 70
     1
 71
     0
 10
0.0
 20
0.0
 11
0.0
 21
0.0
 12
0.0
 22
0.0
 32
0.0
 14
-45.766
 24
-7.1745
 34
0.0
 15
-1.0076
 25
58.4465
 35
0.0
146
0.0
 13
0.0
 23
0.0
 33
0.0
 16
1.0
 26
0.0
 36
0.0
 17
0.0
 27
1.0
 37
0.0
 76
     0
330
1F
  0
MLINESTYLE
  5
18
102
{ACAD_REACTORS
330
17
102
}
330
17
100
AcDbMlineStyle
  2
Standard
 70
     0
  3

 62
   256
 51
90.0
 52
90.0
 71
     2
 49
0.5
 62
   256
  6
BYLAYER
 49
-0.5
 62
   256
  6
BYLAYER
  0
ACDBPLACEHOLDER
  5
F
102
{ACAD_REACTORS
330
E
102
}
330
E
  0
ENDSEC
  0
EOF
